Guitaretab - guitar tabs
Song name
# A B C D E F G H I J K L M N O P Q R S T U V W X Y Z

Hinder - One Night Stand tab

-------------------------------------------------------------------------------
			     One Night Stand - Hinder
-------------------------------------------------------------------------------
Tabbed by: Unregistered
Email:

Tuning: Drop D

i am tabbing this by memory so it may be a little bit off. this song is a bonus track so 
lot of people haven't heard it, but it is a great song.


INTRO

e|-13-----15------16------15------13------15-----13------15-------------------|
B|----13------13------13------13------13------13-----13------13---------------|
G|----------------------------------------------------------------------------|
D|----------------------------------------------------------------------------|
A|----------------------------------------------------------------------------|
D|----------------------------------------------------------------------------|

e|----------------------------------------------------------------------------|
B|----------------------------------------------------------------------------|
G|----------------------------------------------------------------------------|
D|-1-1--x-x-x---4-4-x-x-x---0-0--x-x-x---3-3--x--5-5-5------------------------|
A|-1-1--x-x-x---4-4-x-x-x---0-0--x-x-x---3-3--x--5-5-5------------------------|
D|-1-1--x-x-x---4-4-x-x-x---0-0--x-x-x---1-1--x--3-3-3------------------------|
                                                                                         
                                                X 2

VERSE
[ Tab from: http://www.guitaretab.com/h/hinder/181951.html ]
e|----------------------------------------------------------------------------|
B|----------------------------------------------------------------------------|
G|----------------------------------------------------------------------------|
D|--1-1----4-4----0-0----3-3--x--5-5-5----------------------------------------|
A|--1-1----4-4----0-0----3-3--x--5-5-5----------------------------------------|
D|--1-1----4-4----0-0----1-1--x--3-3-3----------------------------------------|
                                                                                         
                X 2

PRE-CHORUS

e|-------------|
B|-------------|
G|-------------|  X 3
D|--11---8-----|   you can figure out the rhythm, it's pretty easy.
A|--11---8-----|   palm mute the second chord the second time.
D|--11---8-----|


CHORUS

e|-------------------|
B|-------------------|
G|-------------------|  X 4
D|--1--4--0--3--5----|
A|--1--4--0--3--5----|
D|--1--4--0--1--3----|

INTRO
VERSE
PRE-CHORUS
CHORUS
PRE-CHORUS (strum each chord once, clean)
PRE-SOLO (just mute notes and strum)
SOLO (sorry, i didn't tab it, i might tab it eventually)
CHORUS (until the end)

LAST RIFF
e|----------------------------------------------------------------------------|
B|----------------------------------------------------------------------------|
G|----------------------------------------------------------------------------|
D|--111111--xx--111111--xx--111111--xx-111111111------------------------------|
A|--111111--xx--111111--xx--111111--xx-111111111------------------------------|
D|--111111--xx--111111--xx--111111--xx-1111111111-----------------------------|


again, i tabbed by memory without my guitar with me, so it might be a little bit off, sorry.

===============================================================================
Related for One Night Stand tab
×
Best way to learn
"One Night Stand"