Song name
# A B C D E F G H I J K L M N O P Q R S T U V W X Y Z

Hinder - Use Me tab

I noticed no one had this solo so I figured I'd tab it out. I'm pretty sure it's 100%...

e|-------------13-13-10-10-------------13-13-15-15-19b20--19p17-15~-|
B|-11-11-10-10-------------11-11-10-10------------------------------|
G|------------------------------------------------------------------|
D|------------------------------------------------------------------|
A|------------------------------------------------------------------|
E|------------------------------------------------------------------|

-13h15-17b18--15p13-------10h13p10p8-8h10p8p6-6h8p6p5-5h6p5p3-|
--------------------15~\--------------------------------------|
--------------------------------------------------------------|
--------------------------------------------------------------|
--------------------------------------------------------------|
--------------------------------------------------------------|

-10h13p10p8-8h10p8p6-6h8p6p5-5h6p5p3---------|
-------------------------------------6h8-6b7-|
---------------------------------------------|
---------------------------------------------|
---------------------------------------------|
---------------------------------------------|

--------------------------------------|
-6-5-3---3----------------------------|
-------5---5^-5-3----3-0-3-5-0-3-5b---|
-----------*------5\------------------|
------------------*-------------------|
--------------------------------------|

| /  slide up
| \  slide down
| h  hammer-on
| p  pull-off
| ~  vibrato
| +  harmonic
| x  Mute note
| .  Palm Mute
| ^  Bend note
| *  Pinch Harmonic
Tap to rate this tab
# A B C D E F G H I J K L M N O P Q R S T U V W X Y Z