Song name
# A B C D E F G H I J K L M N O P Q R S T U V W X Y Z

Hinder - Up All Night tab


       --------------------------------------------------------------|
       ----------------------------11--------------------------------|
       ---12-12-10-12--10h12-10-12-------12-12-10-12--10h12-10-12----|
       -----------------------------------------------------------12-|
       --------------------------------------------------------------|
       --------------------------------------------------------------|


       ---------------------------------------------------------------|
       ----------------------------11---------------------------------|
       ---12-12-10-12--10h12-10-12-----19--17--14--15\----------------|
       ---------------------------------------------------------------|
       ---------------------------------------------------------------|
       ---------------------------------------------------------------|
Tap to rate this tab
# A B C D E F G H I J K L M N O P Q R S T U V W X Y Z