Song name
# A B C D E F G H I J K L M N O P Q R S T U V W X Y Z

Hinder - Loaded And Alone Acoustic tab

-------------------------------------------------------------------------------                 
                 Loaded And Alone (Acoustic Version) - Hinder
-------------------------------------------------------------------------------
Tabbed by: Idan L

Tuning: Half-Step Down [ D# G# C# F# A# D# ]

Em
|--0--|
|--0--|
|--0--|
|--2--|
|--2--|
|--0--|

C
|--3--|
|--3--|
|--0--|
|--2--|
|--3--|
|-----|

Dsus2
|--3--|
|--3--|
|--2--|
|--0--|
|-----|
|-----|

D
|--2--|
|--3--|
|--2--|
|--0--|
|-----|
|-----|

G
|--3--|
|--3--|
|--0--|
|--0--|
|--2--|
|--3--|

A
|--0--|
|--2--|
|--2--|
|--2--|
|--0--|
|-----|


The other version had some mistakes, so I fixed it. Now it's 100% correct.

INTRO

Em

|------------------------------------------------------------------------------|
|------------------------------------------------------------------------------|
|--------------------------------------------------------------0-----0---------|
|----------5-----5---------5-----5-----------5-----5-------------4-----4-------| x2
|------------7-----7---------7-----7-----3-3---3-----3-----5-5-----5-----5-----|
|------0-0-----0-----0-0-0-----0-----0-----------0-----0-----------------------|


Em C Dsus2 D  

|--0---0---2---2---3---3---2---2---0---0---2---2---3---3---5---5------| -> that's piano,
|----0---0---0---0---0---0---0---0---0---0---0---0---0---0---0---0----| but it sounds
|---------------------------------------------------------------------|    fine on guitar too..
|---------------------------------------------------------------------| x2
|---------------------------------------------------------------------|
|---------------------------------------------------------------------|



VERSE

	Em
Just a kid, just a fool
        C         	     Dsus2     D
Always trying to play it so cool
	Em
So he did what he knew
        C         	     Dsus2     D
He left home and he dropped out of school


CHORUS
           C          D
He wanted fame, fame, fame
Em            	          C	        D
Even just a little bit of shame, shame, shame
Em
He would sell his soul for it
C	    D     Em                          D
Changed his name, never going to get it back, no
         Em   C	       G       D
He`s got money, but he`s way off track
     Em   C	       G       D
So lonely that it makes him think back
     Em         C                 G           D         A      C         D
To his family and his friends and the lady he left back home..    he`s loaded and alone
   Em 	            C        Dsus2     D
He`s loaded and alone      ..yeah

VERSE

	Em
Still a kid, still a fool
        C         	     Dsus2     D
Still trying to break all the rules
     	Em
A big house, with too many rooms
     C         	     Dsus2     D
An ego, to go with it too

CHORUS

            C          D
He got his fame, fame, fame
Em            	               C	        D
More than just a little bit of shame, shame, shame
Em
That he sold his soul for it
C	    D     Em                          D
Changed his name, never going to get it back, no
         Em   C	       G       D
He`s got money, but he`s way off track
     Em   C	       G       D
So lonely that it makes him think back
     Em         C                 G           D         A      C         D
To his family and his friends and the lady he left back home..    he`s loaded and alone

BREAKDOWN

Just play the piano part from the beggining:

Em C Dsus2 D  

|--0---0---2---2---3---3---2---2---0---0---2---2---3---3---5---5------------|
|----0---0---0---0---0---0---0---0---0---0---0---0---0---0---0---0----------|
|---------------------------------------------------------------------------|
|---------------------------------------------------------------------------| x2
|---------------------------------------------------------------------------|
|---------------------------------------------------------------------------|
You can also play a bit with the intro's chord progressions until you'll find the 
bass line in the back.


CHORUS

         Em   C	       G       D
He`s got money, but he`s way off track
     Em   C	       G       D
So lonely that it makes him think back
     Em         C                 G           D         A      
To his family and his friends and the lady he left back home..
         Em   C	       G       D
He`s got money, but he`s way off track
     Em   C	       G       D
So lonely that it makes him think back
     Em         C                 G           D         A      C         D
To his family and his friends and the lady he left back home..    he`s loaded and alone

OUTRO

   Em 	            C        Dsus2     D
He`s loaded and alone
   Em 	            C        Dsus2     D
He`s loaded and alone      ..yeah
   Em 	            C        Dsus2     D
He`s loaded and alone
   Em 	            C        Dsus2     D
He`s loaded and alone      ..yeah
          Em            C      D Dsus2 D
He wanted fame, fame, fame
          Em            C      D Dsus2 D
And such a shame, shame, shame
          Em            C      D Dsus2 D
He got his fame, fame, fame
          Em            C      D Dsus2 D
Such a shame, shame, shame


End w/ Em.
Tap to rate this tab
 
# A B C D E F G H I J K L M N O P Q R S T U V W X Y Z