Song name
# A B C D E F G H I J K L M N O P Q R S T U V W X Y Z

Hinder - Without You tab

This is my first tab so here goes.

Intro/Verse:

e|----------0-------|                  e|----------0-------|
B|---------0-0-0----|                  B|---------0-0-0----|
G|------2-2---2-----|                  G|------4-4---4-----|
D|------2-----------|      X2          D|------4-----------|    X2
A|------0-----------|                  A|------2-----------|
E|------------------|                  E|------------------|

play that 3 times


Pre Chorus:

e|-----------------------------------------------------------------------|
B|-----------------------------------------------------------------------|
G|-----------------------------------------------------------------------|
D|6-6-6-6--2-2-2-2--4-4-4-4-4-4-4-4---6-6-6-6---2-2-2-2--4444444444444444|
A|4-4-4-4--0-0-0-0--2-2-2-2-2-2-2-2---4-4-4-4---0-0-0-0--2222222222222222|
E|-----------------------------------------------------------------------|


Chorus:

e|-------------------------------------|
B|-------------------------------------|
G|-------------------------------------|
D|-------------4-4-4-4--2-2-2-2-2-2-2-2|  X2
A|----2-2-2-2--2-2-2-2--0-0-0-0-0-0-0-0|
E|----0-0-0-0--------------------------|


e|--------------------------------------|
B|--------------------------------------|
G|--------------------------------------|
D|-------------4-4-4-4------------------|
A|----2-2-2-2--2-2-2-2--6-6-6-6--7-7-7-7|
E|----0-0-0-0-----------4-4-4-4--5-5-5-5|


e|---------------------------------------------|
B|---------------------------------------------|
G|---------------------------------------------|
D|----4-4-4-4-4-4-4-4--6-6-6-6-6-6-6-6--7-7-7-7|
A|----2-2-2-2-2-2-2-2--4-4-4-4-4-4-4-4--5-5-5-5|
E|---------------------------------------------|

e|-------------------------------------|
B|-------------------------------------|
G|-------------------------------------|
D|----2-2-2-2-----------4-4-4-4-4-4-4-4|
A|----0-0-0-0--2-2-2-2--2-2-2-2-2-2-2-2|
E|-------------0-0-0-0-----------------|


Verse

e|----------0-------|                  e|----------0-------|
B|---------0-0-0----|                  B|---------0-0-0----|
G|------2-2---2-----|                  G|------4-4---4-----|
D|------2-----------|      X2          D|------4-----------|    X2
A|------0-----------|                  A|------2-----------|
E|------------------|                  E|------------------|

play this two times

I don't know the palm muted section, let me know if you do


Pre Chorus:

e|-----------------------------------------------------------------------|
B|-----------------------------------------------------------------------|
G|-----------------------------------------------------------------------|
D|6-6-6-6--2-2-2-2--4-4-4-4-4-4-4-4---6-6-6-6---2-2-2-2--4444444444444444|
A|4-4-4-4--0-0-0-0--2-2-2-2-2-2-2-2---4-4-4-4---0-0-0-0--2222222222222222|
E|-----------------------------------------------------------------------|

Chorus

e|-------------------------------------|
B|-------------------------------------|
G|-------------------------------------|
D|-------------4-4-4-4--2-2-2-2-2-2-2-2|  X2
A|----2-2-2-2--2-2-2-2--0-0-0-0-0-0-0-0|
E|----0-0-0-0--------------------------|


e|--------------------------------------|
B|--------------------------------------|
G|--------------------------------------|
D|-------------4-4-4-4------------------|
A|----2-2-2-2--2-2-2-2--6-6-6-6--7-7-7-7|
E|----0-0-0-0-----------4-4-4-4--5-5-5-5|


e|----------------------------------------------|
B|----------------------------------------------|
G|----------------------------------------------|
D|----4-4-4-4-4-4-4-4--6-6-6-6-6-6-6-6--7-7-7-7-|
A|----2-2-2-2-2-2-2-2--4-4-4-4-4-4-4-4--5-5-5-5-|
E|----------------------------------------------|


e|-------------------------------------|
B|-------------------------------------|
G|-------------------------------------|
D|----2-2-2-2-----------4-4-4-4-4-4-4-4|   X2
A|----0-0-0-0--2-2-2-2--2-2-2-2-2-2-2-2|
E|-------------0-0-0-0-----------------|

sorry I don't have the solo, but if you know it or any of the other little riffs that 
plays let me know please.


e|-----------------------------------------------------------------------|
B|-----------------------------------------------------------------------|
G|-----------------------------------------------------------------------|
D|6-6-6-6--2-2-2-2--4-4-4-4-4-4-4-4---6-6-6-6---2-2-2-2--4444444444444444|
A|4-4-4-4--0-0-0-0--2-2-2-2-2-2-2-2---4-4-4-4---0-0-0-0--2222222222222222|
E|-----------------------------------------------------------------------|

e|----------------------------------------------|
B|----------------------------------------------|
G|----------------------------------------------|
D|----4-4-4-4-4-4-4-4--6-6-6-6-6-6-6-6--7-7-7-7-|
A|----2-2-2-2-2-2-2-2--4-4-4-4-4-4-4-4--5-5-5-5-|
E|----------------------------------------------|

Chorus:

e|-------------------------------------|
B|-------------------------------------|
G|-------------------------------------|
D|-------------4-4-4-4--2-2-2-2-2-2-2-2|  X2
A|----2-2-2-2--2-2-2-2--0-0-0-0-0-0-0-0|
E|----0-0-0-0--------------------------|


e|--------------------------------------|
B|--------------------------------------|
G|--------------------------------------|
D|-------------4-4-4-4------------------|
A|----2-2-2-2--2-2-2-2--6-6-6-6--7-7-7-7|
E|----0-0-0-0-----------4-4-4-4--5-5-5-5|


e|---------------------------------------------|
B|---------------------------------------------|
G|---------------------------------------------|
D|----4-4-4-4-4-4-4-4--6-6-6-6-6-6-6-6--7-7-7-7|
A|----2-2-2-2-2-2-2-2--4-4-4-4-4-4-4-4--5-5-5-5|
E|---------------------------------------------|

e|-------------------------------------|
B|-------------------------------------|
G|-------------------------------------|
D|----2-2-2-2-----------4-4-4-4-4-4-4-4|   X4
A|----0-0-0-0--2-2-2-2--2-2-2-2-2-2-2-2|
E|-------------0-0-0-0-----------------|

Outro

e|----------0-------|                  e|----------0-------|               e|-----|
B|---------0-0-0----|                  B|---------0-0-0----|               B|-----|
G|------2-2---2-----|                  G|------4-4---4-----|               G|--2--|
D|------2-----------|      X2          D|------4-----------|    X2         D|--2--|
A|------0-----------|                  A|------2-----------|               A|--0--|
E|------------------|                  E|------------------|               E|-----|

Hinder Rock!!!!!
Tap to rate this tab
# A B C D E F G H I J K L M N O P Q R S T U V W X Y Z