Song name
# A B C D E F G H I J K L M N O P Q R S T U V W X Y Z

Hinder - Loaded And Alone tab

-------------------------------------------------------------------------------
			     Loaded And Alone - Hinder
-------------------------------------------------------------------------------
Tabbed by:Joseph Hetherington
Email:joe_trivium@hotmail.com

Intro 1
Intro 2
Verse
Pre-chorus
Chorus
Intro 2
Verse
Pre-chorus
Chorus
Solo
Interlude
Chorus
Chorus variation



Tuning:EADGBe
Intro 1
e|---------------------------------------------------------------------------|
B|---------------------------------------------------------------------------|
G|---------------------------------------------------------------------------|
D|-----------4-4-3---x2-----------4-4-3-------3-3-4-4-6-6--------------------|x2
A|---6-6-4-6-------6------6-6-4-6-------6-6-6--------------------------------|
E|---------------------------------------------------------------------------|
Intro 2
e|--11----11----13----13----14----14----13----13-----------------------------|
B|-----11----11----11----11----11----11----11----11--------------------------|
G|---------------------------------------------------------------------------|
D|---------------------------------------------------------------------------|
A|---------------------------------------------------------------------------|
E|---------------------------------------------------------------------------|

e|--11----11----13----13----14----14----16----16-----------------------------|
B|-----11----11----11----11----11----11----11----11--------------------------|
G|---------------------------------------------------------------------------|
D|---------------------------------------------------------------------------|x2
A|---------------------------------------------------------------------------|
E|---------------------------------------------------------------------------|
Verse(same for both verses, listen to the song to get the rythem)
Lead
e|---------------------------------------------------------------------------|
B|--------7~----------------------4~-----------6~----------------------------|
G|------8~----------------------4~-----------6~------------------------------|
D|----8~----------------------4~-----------6~--------------------------------|
A|--6~----------------------2~-----------4~----------------------------------|
E|---------------------------------------------------------------------------|
Rythem
e|---------------------------------------------------------------------------|
B|---------------------------------------------------------------------------|
G|--8----------------------4-------------6-----------------------------------|
D|--8x16-------------------4x8-----------6x8---------------------------------|
A|--6----------------------2-------------4-----------------------------------|
E|---------------------------------------------------------------------------|
Pre-Chorus(listen to the song to get the Rythem)      PM
e|---------------------------------------------------------------------------|
B|---------------------------------------------------------------------------|
G|---4----6----8---------------------------------------6---------------------|
D|---4----6----8----------last bar before Chorus play--6x8-------------------|
A|---2----4----6---------------------------------------4---------------------|
E|---------------------------------------------------------------------------|
Chorus(Again listen to the song for the Rythem it is complicated to write down)
e|---------------------------------------------------------------------------|
B|---------------------------------------------------------------------------|
G|---8---4---6---4-----6---8---9---8---6---8---2---4-------------------------|
D|---8---4---6---4-x2--6---8---9---8---6---8---2---4-------------------------|
A|---6---2---4---2-----4---6---7---6---4---6---0---2-------------------------|
E|---------------------------------------------------------------------------|
Solo(Listen to song to get rythem and how long each bend is held on for)
e|---------------------------------------------------------------------------|
B|---11--11--16--14--11---------------------11-14h-14br-14-------------------|
G|---13b-13b-18b-16b-13b--10-10b---------------------------------------------|
D|-------------------------------13-11p-13h----------------------------------|
A|---------------------------------------------------------------------------|
E|---------------------------------------------------------------------------|

e|--17b-17-15-14-15----------------14-13-11----------------------------------|
B|------------------15-17br-15-17-----------14-13-11-------------------------|
G|---------------------------------------------------13-11-13b-11---11-13----|
D|---------------------------------------------------------------13----------|
A|---------------------------------------------------------------------------|
E|---------------------------------------------------------------------------|

e|---------------------------------------------------------------------------|
B|---------------------------------------------------------------------------|
G|--13-13b-11p---------------------------------------------------------------|
D|-------------13-11-13------------------------------------------------------|
A|---------------------------------------------------------------------------|
E|---------------------------------------------------------------------------|
Interlude
e|---------------------------------------------------------------------------|
B|---------------------------------------------------------------------------|
G|--------------11-------------11---11---------------------------------------|
D|--13-13-11-13----13-13-11-13---13---13-------------------------------------|
A|---------------------------------------------------------------------------|
E|---------------------------------------------------------------------------|
Chorus Variation
e|---------------------------------------------------------------------------|
B|---------------------------------------------------------------------------|
G|---8-------6---------------------------------------------------------------|
D|---x-x7----x-x7------------------------------------------------------------|
A|---6-------4---------------------------------------------------------------|
E|---------------------------------------------------------------------------|



************************************
| PM  palm mute
| /   slide up
| \   slide down
| h   hammer-on
| p   pull-off
| ~   vibrato
| +   harmonic
| x   Mute note
| b   Bend
| pb  Pre-bend
| br  Bend release
| pbr Pre-bend release
| brb Bend release bend

************************************
Tap to rate this tab
# A B C D E F G H I J K L M N O P Q R S T U V W X Y Z