Song name
# A B C D E F G H I J K L M N O P Q R S T U V W X Y Z

Hinder - Better Than Me tab

PTL


                            Hinder - Better Than Me

By Sanjeev George and Thomas George

SanjeevGeorge123@yahoo.co.in
www.Profile.ultimate-guitar.com/Sanjeev+George
www.facebook.com/SanjeevGeorge

Submitted to and for www.ultimate-guitar.com only, the site for all your tab
needs. If found on any other site it means that this tab has been copied from UG.

Tuning: Standard


Guitar 1 Main acoustic guitar riff played during the intro and verses
E|----------------------------------------------------------------------------|
B|---------5---5--------------5---5--------------3---3---3--3----3-3----5-----|
G|----------------------------------------------------------3----3-3----------|
D|------3----0---3---3-----3----0---3---3-----0----3---3----0----0-0--0-------|
A|----5------------5-----3------------3-----1---------------1----1-1----------|
E|----------------------------------------------------------------------------|

Guitar 1 acoustic

Intro

Verse 1(Main intro riff)
I think you can do much better than me
After all the lies that I made you believe
Guilt kicks in and I start to see
the edge of the bed
where your nightgown used to be

Pre chorus
   Dm
I told myself I won't miss you
   Bb
But I remember
  Dm         Bb        C
what it feels like beside you

Chorus
   Dm                  Bb
I really miss your hair in my face
      Dm                    Bb
and the way your innocence tastes
       Dm                     Bb
and I think you should know this
  C
You are so much better than me


Intro riff again


Verse 2
  Dm                   C                        Bb       C
While looking through your old box of notes
       Dm                     C
I found those pictures I took
                                 Bb    C
That you were looking for
        Dm            C                            Bb   C
If there's one memory I don't want to lose
 Dm                         C                                       Bb     C
that time at the mall you and me in the dressing room

Pre chorus 2
   Dm
I told myself I won't miss you
   Bb
But I remember
  Dm         Bb        C
what it feels like beside you

Chorus 2
I really miss your hair in my face
And the way your innocence tastes
And I think you should know this
You deserve much better than me

Bridge
  Gm                                       Bb
The bed I'm lying in is getting colder
                                          F
Wish I never would've said it's over
                   C
And I can't pretend
      Gm                                      Bb
I won't think about you when I'm older
                                             F
Cause we never really had our closure
                         C
This can't be the endÖ.yeah!!


Chorus 3 on guitar 2
 D5                       Bb5
I really miss your hair in my face
    D5                        Bb5
and the way your innocence tastes
    D5                          Bb5
and I think you should know this
       C5
you deserve much better than me

D5                       Bb5
I really miss your hair in my face
    D5                        Bb5
and the way your innocence tastes
    D5                          Bb5
and I think you should know this
       C5
you deserve much better than me

 (And I think you should know this)
(You deserve much better than me)


Guitar 2 licks distorted with effect

Fades in during verse 1
e|-----------------------------------------------------------|
B|----15b17r15vvvv-------------------------------------------|
G|------------------------14vvvv\12/14vvvv-------------------|
D|-----------------------------------------------------------|
A|-----------------------------------------------------------|
E|-----------------------------------------------------------|

In pre chorus 1
e|------------------------------------------------------------------|
B|------------------------------------------------------------------|
G|----14vvvv\12vvvv----/15vvvv----\14vvvv----/15vvvv----/17vvvv-----|
D|------------------------------------------------------------------|
A|------------------------------------------------------------------|
E|------------------------------------------------------------------|

Before verse 2 and during verse 2
e|----------------------------------------------------------------------------|
B|----------------------------------------------------------------------------|
G|----14vvvv\12vvvv\10vvvv\9vvvv/10vvvv----12vvvv----14vvvv\12vvvv\10vvvv-----|
D|----------------------------------------------------------------------------|
A|----------------------------------------------------------------------------|
E|----------------------------------------------------------------------------|

In pre chorus 2
e|---------------------------------------------------------------------------|
B|---------------------------------------------------------------------------|
G|----14vvvv\12vvvv\9vvvv/10vvvv/12vvvv/14vvvv/15vvvv/17vvvv-----------------|
D|---------------------------------------------------------------------------|
A|---------------------------------------------------------------------------|
E|---------------------------------------------------------------------------|

In chorus 2
e|---------------------------------------------------------------------------|
B|---------------------------------------------------------------------------|
G|----14vvvv-15vvvv-14vvvv-15vvvv-14vvvv-15vvvv----17vvvv--------------------|
D|---------------------------------------------------------------------------|
A|---------------------------------------------------------------------------|
E|---------------------------------------------------------------------------|

In bridge
e|---------------------------------------------------------------------------|
B|---------------------------------------------------------------------------|
G|----14vvvv-17vvvv-15vvvv-17vvvv-15vvvv-17vvvv-15vvvv-----------------------|
D|---------------------------------------------------------------------------|
A|---------------------------------------------------------------------------|
E|---------------------------------------------------------------------------|

e|---------------------------------------------------------------------|
B|---------------------------------------------------------------------|
G|----17v-15v-14v-12v-17v-15v-14v-12v-17v-15v-14v-12v----17vvvvv-------|
D|---------------------------------------------------------------------|
A|---------------------------------------------------------------------|
E|---------------------------------------------------------------------|


| /  slide up
| \  slide down
| h  hammer-on
| p  pull-off
| ~  let ring
| +  harmonic
| x  Mute note
| v  vibrato


Hope itís right. Please rate and comment
Tap to rate this tab
# A B C D E F G H I J K L M N O P Q R S T U V W X Y Z