Song name
# A B C D E F G H I J K L M N O P Q R S T U V W X Y Z

Hinder - The All American Nightmare tab

E--------------------------------------------------------------|
B--------------------------------------------------------------|
G--------------------------------------------------------------|
D----0---2-------0---2------------------------0---2------0---2-|
A--------------------------------------------------------------|
D--2---2-------2---2--------5H7-5-0---------2---2------2---2---|




E-------------------------------------------------------------|
B-------------------------------------------------------------|
G-------------------------------------------------------------|
D-------------------------------------------------------------|
A--0--2--5----0--2--5-5-5------0--2--5----0--2--5-x-5\7-------|
D--0--2--5----0--2--5-5-5------0--2--5----0--2--5-x-5\7-------|




E------------------------------------------------------------|
B------------------------------------------------------------|
G------------------------------------------------------------|
D------------------------------------------------------------|
A--0--2--5----0--2--5-5-5------0--2--5----0--2--5\7/5--------|
D--0--2--5----0--2--5-5-5------0--2--5----0--2--5\7/5--------|



Verse:
E-----------------------------------------------------------|
B-----------------------------------------------------------|
G-----------------------------------------------------------|
D---0-----2------0-----2---------5----7-----5----7----------|
A-----------------------------------------------------------|
D--2---2--------2---2----------7---7------7---7-------------|
Tap to rate this tab
 
# A B C D E F G H I J K L M N O P Q R S T U V W X Y Z