Song name
# A B C D E F G H I J K L M N O P Q R S T U V W X Y Z

Hinder - The All American Nightmare tab

Hinder - All american nightmare by andy.inns@yahoo.com
I think is about 90% right. Sorry there no SOLO in this
hope u enjoy this song. Any improvement plz let me no!!!
THX From RevenyU Lead guitar (TIGER)

INTRO:

LEAD GUITAR
e|-----------------------------------------------|
B|-----------------------------------------------|
G|-----------------------------------------------|
D|--0--2----0--2--------------0--2----2--2---X-X-|
A|-------------------------------------------X-X-|
E|-2--2----2--2----5H7p5/----2--2----2--2----X-X-|

BREAK:

RHYTHM GUITAR:
e|---------------------------|------------------------------|
B|---------------------------|------------------------------|
G|---------------------------|------------------------------|
D|---------------------------|------------------------------|
A|-0--2--5------0--2--5-5-5--|-0--2--5-----0--2--5/7--------|
E|-0--2--5------0--2--5-5-5--|-0--2--5-----0--2--5/7--------|

e|---------------------------|------------------------------|
B|---------------------------|------------------------------|
G|---------------------------|------------------------------|
D|---------------------------|------------------------------|
A|-0--2--5------0--2--5-5-5--|-0--2--5-----7p5p0------------|
E|-0--2--5------0--2--5-5-5--|-0--2--5-----7p5p0------------|

LEAD GUITAR:
e|---------------------------|------------------------------|
B|--------------------8~~~~--|------------------------------|
G|--------------------7~~~~--|------------------------------|
D|--------------------5~~~~--|------------------------------|
A|-0--2--5------0--2---------|-0--2--5-----0--2--5/7--------|
E|-0--2--5------0--2---------|-0--2--5-----0--2--5/7--------|

e|---------------------------|------------------------------|
B|---------------------------|------------------------------|
G|---------------------------|------------------------------|
D|---------------------------|------------------------------|
A|-0--2--5------0--2--5-5-5--|-0--2--5-----7p5p0------------|
E|-0--2--5------0--2--5-5-5--|-0--2--5-----7p5p0------------|

VES:

LEAD GUITAR
e|--------------------|-------------------|
B|--------------------|-------------------|
G|--------------------|-------------------|
D|--0--2----0--2------|--0--2----2--2-----|
A|--------------------|-------------------|
E|-2--2----2--2-------|-2--2----2--2------|

e|--------------------|-------------------|
B|--------------------|-------------------|
G|--------------------|-------------------|
D|--5--5----5--5------|--0--2----2--2-----|
A|--------------------|-------------------|
E|-7--7----7--7-------|-2--2----2--2------|

e|--------------------|-------------------|
B|--------------------|-------------------|
G|--------------------|-------------------|
D|--7--7----7--7------|--0--2----2--2-----|
A|--------------------|-------------------|
E|-9--9----9--9-------|-2--2----2--2------|

RHYTHM GUITAR:
e|--------------------|-------------------|
B|--------------------|-------------------|
G|--------------------|-------------------|
D|--------------------|-------------------|
A|-2------------------|-2-----------------|
E|-2------------------|-2-----------------|

e|--------------------|-------------------|
B|--------------------|-------------------|
G|--------------------|-------------------|
D|--------------------|-------------------|
A|-7------------------|-2-----------------|
E|-7------------------|-2-----------------|

e|--------------------|-------------------|
B|--------------------|-------------------|
G|--------------------|-------------------|
D|--------------------|-------------------|
A|-9------------------|-0-2----5H7p5--x-x-|
E|-9------------------|-0-2----5H7p5--x-x-|

CHR:

RHYTHM GUITAR:
e|---------------------------|------------------------------|
B|---------------------------|------------------------------|
G|---------------------------|------------------------------|
D|---------------------------|------------------------------|
A|-0--2--5------0--2--5-5-5--|-0--2--5-----0--2--5/7--------|
E|-0--2--5------0--2--5-5-5--|-0--2--5-----0--2--5/7--------|

e|---------------------------|------------------------------|
B|---------------------------|------------------------------|
G|---------------------------|------------------------------|
D|---------------------------|------------------------------|
A|-0--2--5------0--2--5-5-5--|-0--2--5-----7p5p0------------|
E|-0--2--5------0--2--5-5-5--|-0--2--5-----7p5p0------------|

e|----------------------------------------------------------|
B|----------------------------------------------------------|
G|----------------------------------------------------------|
D|----------------------------------------------------------|
A|-7--9-9---7--9-9---7--9-9---0--7-9----7~~~-------5---0----|
E|-7--9-9---7--9-9---7--9-9---0--7-9----7~~~-------5---0----|

LEAD GUITAR:
e|---------------------------|------------------------------|
B|--------------------8~~~~--|------------------------------|
G|--------------------7~~~~--|------------------------------|
D|--------------------5~~~~--|------------------------------|
A|-0--2--5------0--2---------|-0--2--5-----0--2--5/7--------|
E|-0--2--5------0--2---------|-0--2--5-----0--2--5/7--------|

e|---------------------------|------------------------------|
B|---------------------------|------------------------------|
G|---------------------------|------------------------------|
D|---------------------------|------------------------------|
A|-0--2--5------0--2--5-5-5--|-0--2--5-----7p5p0------------|
E|-0--2--5------0--2--5-5-5--|-0--2--5-----7p5p0------------|

e|----------------------------------------------------------|
B|--------------------------------------10~~~---------------|
G|--------------------------------------9~~~~---------------|
D|--------------------------------------7~~~~---------------|
A|-7--9-9---7--9-9---7--9-9---0--7-9---------------5---0----|
E|-7--9-9---7--9-9---7--9-9---0--7-9---------------5---0----|

BREAK:

RHYTHM GUITAR:
e|---------------------------|------------------------------|
B|---------------------------|------------------------------|
G|---------------------------|------------------------------|
D|---------------------------|------------------------------|
A|-0--2--5------0--2--5-5-5--|-0--2--5------0--2--7p5p0-----|
E|-0--2--5------0--2--5-5-5--|-0--2--5------0--2--7p5p0-----|

lEAD GUITAR:
e|---------------------------|------------------------------|
B|-------------------8~~~----|------------------------------|
G|-------------------7~~~----|------------------------------|
D|-------------------5~~~----|------------------------------|
A|-0--2--5------0--2---------|-0--2--5------0--2--7p5p0-----|
E|-0--2--5------0--2---------|-0--2--5------0--2--7p5p0-----|

VES:

LEAD GUITAR
e|--------------------|-------------------|
B|--------------------|-------------------|
G|--------------------|-------------------|
D|--0--2----0--2------|--0--2----2--2-----|
A|--------------------|-------------------|
E|-2--2----2--2-------|-2--2----2--2------|

e|--------------------|-------------------|
B|--------------------|-------------------|
G|--------------------|-------------------|
D|--5--5----5--5------|--5--5----5--5-----|
A|--------------------|-------------------|
E|-7--7----7--7-------|-7--7----7--7------|

e|--------------------|-------------------|
B|--------------------|-------------------|
G|--------------------|-------------------|
D|--7--7----7--7------|------------5-7-5~-|
A|--------------------|-5H7--7-7-5--------|
E|-9--9----9--9-------|-------------------|

RHYTHM GUITAR:
e|--------------------|-------------------|
B|--------------------|-------------------|
G|--------------------|-------------------|
D|--------------------|-------------------|
A|-2------------------|-2-----------------|
E|-2------------------|-2-----------------|

e|--------------------|-------------------|
B|--------------------|-------------------|
G|--------------------|-------------------|
D|--------------------|-------------------|
A|-7------------------|-7-----------------|
E|-7------------------|-7-----------------|

e|--------------------|-------------------|
B|--------------------|-------------------|
G|--------------------|-------------------|
D|--------------------|-------------------|
A|-9------------------|-0-2----5H7p5--x-x-|
E|-9------------------|-0-2----5H7p5--x-x-|

CHR:

RHYTHM GUITAR:
e|---------------------------|------------------------------|
B|---------------------------|------------------------------|
G|---------------------------|------------------------------|
D|---------------------------|------------------------------|
A|-0--2--5------0--2--5-5-5--|-0--2--5-----0--2--5/7--------|
E|-0--2--5------0--2--5-5-5--|-0--2--5-----0--2--5/7--------|

e|---------------------------|------------------------------|
B|---------------------------|------------------------------|
G|---------------------------|------------------------------|
D|---------------------------|------------------------------|
A|-0--2--5------0--2--5-5-5--|-0--2--5-----7p5p0------------|
E|-0--2--5------0--2--5-5-5--|-0--2--5-----7p5p0------------|

e|----------------------------------------------------------|
B|----------------------------------------------------------|
G|----------------------------------------------------------|
D|----------------------------------------------------------|
A|-7--9-9---7--9-9---7--9-9---0--7-9----7~~~-------5---0----|
E|-7--9-9---7--9-9---7--9-9---0--7-9----7~~~-------5---0----|

LEAD GUITAR:
e|---------------------------|------------------------------|
B|--------------------8~~~~--|------------------------------|
G|--------------------7~~~~--|------------------------------|
D|--------------------5~~~~--|------------------------------|
A|-0--2--5------0--2---------|-0--2--5-----0--2--5/7--------|
E|-0--2--5------0--2---------|-0--2--5-----0--2--5/7--------|

e|---------------------------|------------------------------|
B|---------------------------|------------------------------|
G|---------------------------|------------------------------|
D|---------------------------|------------------------------|
A|-0--2--5------0--2--5-5-5--|-0--2--5-----7p5p0------------|
E|-0--2--5------0--2--5-5-5--|-0--2--5-----7p5p0------------|

e|----------------------------------------------------------|
B|--------------------------------------10~~~---------------|
G|--------------------------------------9~~~~---------------|
D|--------------------------------------7~~~~---------------|
A|-7--9-9---7--9-9---7--9-9---0--7-9---------------5---0----|
E|-7--9-9---7--9-9---7--9-9---0--7-9---------------5---0----|

BRG:

LEAD + RHYTHM
e|------------------------------------------|
B|------------------------------------------|
G|------------------------------------------|
D|------------------------------------------|x3
A|-2-2/----4-4/----5-5/----9-7-0----9-7-----|
E|-2-2/----4-4/----5-5/----9-7-0----9-7-----|

EXTRA:

ONE GUITAR ONLY:
e|------------------------------------------|
B|------------------------------------------|
G|------------------------------------------|
D|------------------------------------------|
A|------------------------------------------|
E|-9-7-0---9-7-0---9-7-0---9-7-0---9-7-0----|

BOTH GUITAR:
e|------------------------------------------|
B|------------------------------------------|
G|------------------------------------------|
D|------------------------------------------|
A|-9-7-0---9-7-0---9-7-0---9-7-0---9-7-0----|
E|-9-7-0---9-7-0---9-7-0---9-7-0---9-7-0----|

GUITAR SOLO:(Just play using pentatonic blues I think in key E)

SHORT AFTER SOLO: (ONE GUITAR)
e|-------|----------------------------------|
B|-------|----------------------------------|
G|-------|----------------------------------|
D|-------|--0--2----0--2----0--2----0--2----|
A|-5--0--|----------------------------------|
E|-5--0--|-2--2----2--2----2--2----2--2-----|

CHR:

RHYTHM GUITAR:
e|---------------------------|------------------------------|
B|---------------------------|------------------------------|
G|---------------------------|------------------------------|
D|---------------------------|------------------------------|
A|-0--2--5------0--2--5-5-5--|-0--2--5-----0--2--5/7--------|
E|-0--2--5------0--2--5-5-5--|-0--2--5-----0--2--5/7--------|

e|---------------------------|------------------------------|
B|---------------------------|------------------------------|
G|---------------------------|------------------------------|
D|---------------------------|------------------------------|
A|-0--2--5------0--2--5-5-5--|-0--2--5-----7p5p0------------|
E|-0--2--5------0--2--5-5-5--|-0--2--5-----7p5p0------------|

e|----------------------------------------------------------|
B|----------------------------------------------------------|
G|----------------------------------------------------------|
D|----------------------------------------------------------|
A|-7--9-9---7--9-9---7--9-9---0--7-9----7~~~-------5---0----|
E|-7--9-9---7--9-9---7--9-9---0--7-9----7~~~-------5---0----|

LEAD GUITAR:
e|---------------------------|------------------------------|
B|--------------------8~~~~--|------------------------------|
G|--------------------7~~~~--|------------------------------|
D|--------------------5~~~~--|------------------------------|
A|-0--2--5------0--2---------|-0--2--5-----0--2--5/7--------|
E|-0--2--5------0--2---------|-0--2--5-----0--2--5/7--------|

e|---------------------------|------------------------------|
B|---------------------------|------------------------------|
G|---------------------------|------------------------------|
D|---------------------------|------------------------------|
A|-0--2--5------0--2--5-5-5--|-0--2--5-----7p5p0------------|
E|-0--2--5------0--2--5-5-5--|-0--2--5-----7p5p0------------|

e|----------------------------------------------------------|
B|--------------------------------------10~~~---------------|
G|--------------------------------------9~~~~---------------|
D|--------------------------------------7~~~~---------------|
A|-7--9-9---7--9-9---7--9-9---0--7-9---------------5---0----|
E|-7--9-9---7--9-9---7--9-9---0--7-9---------------5---0----|

BREAK:

RHYTHM GUITAR:
e|---------------------------|------------------------------|
B|---------------------------|------------------------------|
G|---------------------------|------------------------------|
D|---------------------------|------------------------------|
A|-0--2--5------0--2--5-5-5--|-0--2--5-----0--2--5/7--------|
E|-0--2--5------0--2--5-5-5--|-0--2--5-----0--2--5/7--------|

e|---------------------------|------------------------------|
B|---------------------------|------------------------------|
G|---------------------------|------------------------------|
D|---------------------------|------------------------------|
A|-0--2--5------0--2--5-5-5--|-0--2--5-----7p5p0------------|
E|-0--2--5------0--2--5-5-5--|-0--2--5-----7p5p0------------|

LEAD GUITAR:
e|---------------------------|------------------------------|
B|--------------------8~~~~--|------------------------------|
G|--------------------7~~~~--|------------------------------|
D|--------------------5~~~~--|------------------------------|
A|-0--2--5------0--2---------|-0--2--5-----0--2--5/7--------|
E|-0--2--5------0--2---------|-0--2--5-----0--2--5/7--------|

e|---------------------------|------------------------------|
B|---------------------------|------------------------------|
G|---------------------------|------------------------------|
D|---------------------------|------------------------------|
A|-0--2--5------0--2--5-5-5--|-0--2--5-----7p5p0------------|
E|-0--2--5------0--2--5-5-5--|-0--2--5-----7p5p0------------|

OUTTRO:

LEAD + RHYTHM (LEAD USE WAH WAH)
e|------------------------------------------|
B|------------------------------------------|
G|------------------------------------------|
D|------------------------------------------|x2
A|-2-2/----4-4/----5-5/----9-7-0----9-7-----|
E|-2-2/----4-4/----5-5/----9-7-0----9-7-----|

BOTH GUITAR:
e|------------------------------------------   --------------|
B|------------------------------------------   --------------|
G|------------------------------------------   --------------|
D|------------------------------------------x2 --------------|
A|-9-7-0---9-7-0---9-7-0---9-7-0---9-7-0----   ---2----2-----|
E|-9-7-0---9-7-0---9-7-0---9-7-0---9-7-0----   ---2----2-----|

INTRO:
BREAK:
VES:
CHR:

BREAK:
VES:
CHR:

BRG:
EXTRA:
SOLO:

CHR:
BREAK:
OUTTRO:
Tap to rate this tab
 
# A B C D E F G H I J K L M N O P Q R S T U V W X Y Z