Song name
# A B C D E F G H I J K L M N O P Q R S T U V W X Y Z

Hinder - The All American Nightmare tab

-------------------------------------------------------------------------------
                       All American Nightmare - Hinder
-------------------------------------------------------------------------------
Tabbed by: Matthew (HardAsARock)
Email: six-strings@live.com

Title: All American Nightmare
Artist: Hinder
Album: All American Nightmare
Track: 02
Tuning: Drop Eb. Drop D, Half step UP. (Eb Gb Eb Ab C F) careful if you have light gauge strings.
           or you can tune to Drop D, and Capo 1st fret.

Intro:
----------------------------------------------------------------------------------------|
----------------------------------------------------------------------------------------|
----------------------------------------------------------------------------------------|
---0---2---0---2---------------0---2---0---0--5-5-5-5--0-2-5---0-2---5-5-5-5------------|
------------------0-2-0-----------------------5-5-5-5--0-2-5-x-0-2-x-5-5-5-5------------|
-2---2---2---2----------5-2--2---2---2---2----5-5-5-5--0-2-5-x-0-2-x-5-5-5-5------------|

----------------------------------------------------------------------------------------|
----------------------------------------------------------------------------------------|
----------------------------------------------------------------------------------------|
----0-2-5---0-2---5/7-7-7--0-2-5-x-0-2-x-5-5-5-5---0-2-5---0-2--------------------------|
----0-2-5-x-0-2-x-5/7-7-7--0-2-5-x-0-2-x-5-5-5-5---0-2-5-x-0-2-x-7----------------------|
----0-2-5-x-0-2-x-5/7-7-7--0-2-5-x-0-2-x-5-5-5-5---0-2-5-x-0-2-x-7b-r(7)p5-\0-----------|

verse 1
------------------------------------------------------------------------------------------------|
------------------------------------------------------------------------------------------------|
------------------------------------------------------------------------------------------------|
---0---2---0--2----0---2---0--2----5---7---5--7----0---2---0--2---4---4---4---4---2-------------|
------------------------------------------------------------------------------------------------|
-2---2---2--2----2---2---2--2----7---7---7--7----2---2---2--2-------4---4---4---4---------------|

chorus 1
-------------------------------------------------------------------------------|
-------------------------------------------------------------------------------|
-------------------------------------------------------------------------------|
-5-5-5-5--0-2-5---0-2---5-5-5-5--0-2-5---0-2---5/7-7-7--0-2-5-x-0-2-x-5-5-5-5--|
-5-5-5-5--0-2-5-x-0-2-x-5-5-5-5--0-2-5-x-0-2-x-5/7-7-7--0-2-5-x-0-2-x-5-5-5-5--|
-5-5-5-5--0-2-5-x-0-2-x-5-5-5-5--0-2-5-x-0-2-x-5/7-7-7--0-2-5-x-0-2-x-5-5-5-5--|

----------------------------|
----------------------------|
----------------------------|
-0-2-5---0-2----------------|
-0-2-5-x-0-2-x-7------------|
-0-2-5-x-0-2-x-7b-r(7)p5-\0-|

 Gtr I
|------------------------------------------------------------------------------------------------|
|------------------------------------------------------------------------------------------------|
|------------------------------------------------------------------------------------------------|
|--9-9-7-9--7-9-7-7-9-8-7~-------5--0---0-2-5---0-2---5-5-5-5--0-2-5---0-2-----------------------|
|--9-9-7-9--7-9-7-7-9-8-7~--\----5--0---0-2-5-x-0-2-x-5-5-5-5--0-2-5-x-0-2-x-7-------------------|
|--9-9-7-9--7-9-7-7-9-8-7~---\0--5--0---0-2-5-x-0-2-x-5-5-5-5--0-2-5-x-0-2-x-7b-r(7)p5\2p0-------|
|
|Gtr II (w/ wah)
|------------------------------------------------------------------------------------------------|
|----------------------------------------------------/5-5~5~5~-----------------------------------|
|---------------7---7-----------------------------------------/7-/7-/7--/7-7---------------------|
|-/9-9-9-7-9--7---9---9-7~---------------------------------------------------7b-r(7)p5-----------|
|--------------------------------------------------------------------------------------7p5-------|
|------------------------------------------------------------------------------------------------|

verse 2
------------------------------------------------------------------------------------------------|
------------------------------------------------------------------------------------------------|
------------------------------------------------------------------------------------------------|
---0-2----0---2---2-----0-2----0---2---2-----5-7---5---7---7-----5-7---5---7---7----------------|
------------------------------------------------------------------------------------------------|
-2------2---2---2-----2------2---2---2----/7-----7---7---7-----7-----7---7---7------------------|

                   |-dist on
------------------------------------------------------------------------------------------------|
------------------------------------------------------------------------------------------------|
------------------------------------------------------------------------------------------------|
--5---5---5---5----------5----5/7\5-------------------------------------------------------------|
---------------------5\7---h7-------------------------------------------------------------------|
----7---7---7---7----------------------15\-\----9\-\--------------------------------------------|

chorus 2
-------------------------------------------------------------------------------|
-------------------------------------------------------------------------------|
-------------------------------------------------------------------------------|
-5-5-5-5--0-2-5---0-2---5-5-5-5--0-2-5---0-2---5/7-7-7--0-2-5-x-0-2-x-5-5-5-5--|
-5-5-5-5--0-2-5-x-0-2-x-5-5-5-5--0-2-5-x-0-2-x-5/7-7-7--0-2-5-x-0-2-x-5-5-5-5--|
-5-5-5-5--0-2-5-x-0-2-x-5-5-5-5--0-2-5-x-0-2-x-5/7-7-7--0-2-5-x-0-2-x-5-5-5-5--|

----------------------------|
----------------------------|
----------------------------|
-0-2-5---0-2----------------|
-0-2-5-x-0-2-x-7------------|
-0-2-5-x-0-2-x-7b-r(7)p5-\0-|

 Gtr I
|------------------------------------------------------------------------------------------------|
|------------------------------------------------------------------------------------------------|
|------------------------------------------------------------------------------------------------|
|--9-9-7-9--7-9-7-7-9-8-7~-------5--0------------------------------------------------------------|
|--9-9-7-9--7-9-7-7-9-8-7~--\----5--0------------------------------------------------------------|
|--9-9-7-9--7-9-7-7-9-8-7~---\0--5--0------------------------------------------------------------|
|
|Gtr II (w/ wah)
|------------------------------------------------------------------------------------------------|
|------------------------------------------------------------------------------------------------|
|---------------7---7----------------------------------------------------------------------------|
|-/9-9-9-7-9--7---9---9-7~-----------------------------------------------------------------------|
|------------------------------------------------------------------------------------------------|
|------------------------------------------------------------------------------------------------|

bridge
------------------------------------------------------------------------------------------------|
------------------------------------------------------------------------------------------------|
------------------------------------------------------------------------------------------------|
-2-2-----4-4-----5-5-----------------------2-2-----4-4-----5-5----------------------------------|
-2-2-----4-4-----5-5-----------------------2-2-----4-4-----5-5------2---------2-----------------|
-2-2-5\\-4-4-6\\-5-5-7\\--7b-r(7)p5-7-5--0-2-2-5\\-4-4-7\\-5-5-9\\----5~-x(5)---4~-x(4)---------|

------------------------------------------------------------------------------------------------|
------------------------------------------------------------------------------------------------|
------------------------------------------------------------------------------------------------|
-2-2-----4-4-----5-5-----------------------2-2-----4-4-----5-5----------------------------------|
-2-2-----4-4-----5-5-----------------------2-2-----4-4-----5-5------2---------2-----------------|
-2-2-5\\-4-4-6\\-5-5-7\\--7b-r(7)p5-7-5--0-2-2-5\\-4-4-7\\-5-5-9\\----5~-x(5)---4~-x(4)---------|

wah closed                               |- open
-----------------------------------------------------------------------------------|
-----------------------------------------------------------------------------------|
-----------------------------------------------------------------------------------|
-----------------------------------------------------------------------------------|
-----------------------------------------------------------------------------------|
-7b-r-5--7b-r-5--7b-r-5--7b-r-5--7b-r-5----7b-r-5--7b-r-5--7b-r-5--7b-r-5--7b-r-5--|

solo:
---------------------------------------------------------------------------------------|
-12----12--12--------/17---------------------------------------------------------------|
-14b-r-14b-14b-rp12------14b(15)-14----14~-14/16(14)-14-14~-14b-14b-r(14)p12-----------|
-----------------------------------h17---------------------------------------14~-------|
---------------------------------------------------------------------------------------|
---------------------------------------------------------------------------------------|


--------------------------------------------------------------------------------------|
---13b~-r-13*b~--15-17-18-17pb(18)r(17)p15-19b(20)~-----------------------------------|
--------------------------------------------------------------------------------------|
--------------------------------------------------------------------------------------|
--------------------------------------------------------------------------------------|
--------------------------------------------------------------------------------------|

--------------------------------------------------------------------------------------|
-15h17h18p17p15----15-----------------------------------------------------------------|
---------------h17---h17p14----17h19p17p14-17p14--------------------------------------|
---------------------------h17-------------------17p15-17h19p17p15h17p15p14h15--------|
-------------------------------------------------------------------------------17~----|
--------------------------------------------------------------------------------------|

-17-----------------------------------------------------------------------------------|
----17b-15h17-17----------------------------------------------------------------------|
-----------------16--14----------------12---------------------------------------------|
------------------------14b-12-14------14b----5-0-------------------------------------|
----------------------------------14~---------5-0-------------------------------------|
----------------------------------------------5-0-------------------------------------|

clean
----------------------------------------|
----------------------------------------|
----------------------------------------|
---0---2----0---2-----0---2----0---2----|
----------------------------------------|
-2---2----2---2-----2---2----2---2------|

chorus 3
-------------------------------------------------------------------------------|
-------------------------------------------------------------------------------|
-------------------------------------------------------------------------------|
-5-5-5-5--0-2-5---0-2---5-5-5-5--0-2-5---0-2---5/7-7-7--0-2-5-x-0-2-x-5-5-5-5--|
-5-5-5-5--0-2-5-x-0-2-x-5-5-5-5--0-2-5-x-0-2-x-5/7-7-7--0-2-5-x-0-2-x-5-5-5-5--|
-5-5-5-5--0-2-5-x-0-2-x-5-5-5-5--0-2-5-x-0-2-x-5/7-7-7--0-2-5-x-0-2-x-5-5-5-5--|

----------------------------|
----------------------------|
----------------------------|
-0-2-5---0-2----------------|
-0-2-5-x-0-2-x-7------------|
-0-2-5-x-0-2-x-7b-r(7)p5-\0-|

------------------------------------------------------------------------------------------------|
------------------------------------------------------------------------------------------------|
------------------------------------------------------------------------------------------------|
--9-9-7-9--7-9-7-7-9-8-7~-------5--0----0-2-5---0-2---5-5-5-5--0-2-5---0-2---5/7-7-7--0-2-5-----|
--9-9-7-9--7-9-7-7-9-8-7~--\----5--0----0-2-5-x-0-2-x-5-5-5-5--0-2-5-x-0-2-x-5/7-7-7--0-2-5-----|
--9-9-7-9--7-9-7-7-9-8-7~---\0--5--0----0-2-5-x-0-2-x-5-5-5-5--0-2-5-x-0-2-x-5/7-7-7--0-2-5-----|

-----------------------------------------------|
-----------------------------------------------|
-----------------------------------------------|
---0-2---5-5-5-5--0-2-5---0-2------------------|
-x-0-2-x-5-5-5-5--0-2-5-x-0-2-x-7--------------|
-x-0-2-x-5-5-5-5--0-2-5-x-0-2-x-7b-r(7)p5\2p0--|

outro
------------------------------------------------------------------------------------------------|
------------------------------------------------------------------------------------------------|
------------------------------------------------------------------------------------------------|
-2-2-----4-4-----5-5-----------------------2-2-----4-4-----5-5----------------------------------|
-2-2-----4-4-----5-5-----------------------2-2-----4-4-----5-5------2---------2-----------------|
-2-2-5\\-4-4-6\\-5-5-7\\--7b-r(7)p5-7-5--0-2-2-5\\-4-4-7\\-5-5-9\\----5~-x(5)---4~-x(4)---------|

--------------------------------------------------------------|
--------------------------------------------------------------|
--------------------------------------------------------------|
--------------------------------------------------------------|
--------------------------------------------------------------|
-7b-r(7)p5--7b-r(7)p5--7b-r(7)p5--7b-r(7)p5--7b-r(7)p5--------|

--------------------------------------------------------------|
--------------------------------------------------------------|
--------------------------------------------------------------|
---------------------------------------------------------2-2--|
---------------------------------------------------------2-2--|
--7b-r(7)p5--7b-r(7)p5--7b-r(7)p5--7b-r(7)p5--7b-r(7)p5--2-2--|



************************************

| !!  tremolo pick
| tr  trill
| /   slide up
| \   slide down
| h   hammer-on
| p   pull-off
| ~   vibrato
| +   harmonic
| *   pinch harmonic
| x   Mute note
| b   Bend
| pb  Pre-bend
| br  Bend release
| pbr Pre-bend release
| brb Bend release bend
| b(n)bend to note shown in ( )

************************************
Tap to rate this tab
 
# A B C D E F G H I J K L M N O P Q R S T U V W X Y Z