Song name
# A B C D E F G H I J K L M N O P Q R S T U V W X Y Z

Hinder - One Night Stand tab

Tabbed by Quinity
The ^ above the lyrics is the position where you play the chord
The / means sliding
Tuning: D-Standard(One step down)

INTRO
(First Guitar)
D|-15-----17------18------17------15------17-----15------17-------------------|
A|----15------15------15------15------15------15-----15------15---------------|
F|----------------------------------------------------------------------------|
C|----------------------------------------------------------------------------|
G|----------------------------------------------------------------------------|
D|----------------------------------------------------------------------------|
(Second Guitar)
D|----------------------------------------------------------------------------|
A|----------------------------------------------------------------------------|
F|----------------------------------------------------------------------------|
C|-5-5--x-x-x---8-8-x-x-x---5-5--x-x-x---8-8-7-5-7-5-5------------------------|
G|-5-5--x-x-x---6-6-x-x-x---3-3--x-x-x---6-6-5-3-5-5-5------------------------|
D|-3-3--x-x-x-------x-x-x--------x-x-x-------------3-3------------------------|
(Third Guitar)
D|----------------------------------------------------------------------------|
A|----------------------------------------------------------------------------|
F|---------------------------------------8-8-7-5-7-0-0------------------------|
C|----------------------------------------------------------------------------|
G|----------------------------------------------------------------------------|
D|----------------------------------------------------------------------------|
                                                X 2

VERSE
 ^           ^           ^                  ^       ^
(  All night,  all mine.   Makin memories I might remember)
D|----------------------------------------------------------------------------|
A|----------------------------------------------------------------------------|
F|---------------------------------------7-7/8/7/5/7--------------------------|
C|-5-5---------8-8---------5-5-----------7-7/8/7/5/75-------------------------|
G|-5-5---------6-6---------3-3-----------5-5/6/5/3/55-------------------------|
D|-3-3----------------------------------------------3-------------------------|

                X 2

PRE-CHORUS
 ^                            ^
(be my biggest fan, scream as loud as you can...)
D|-------------|
A|-------------|
F|-------------|  X2
C|--8---5------|
G|--6---3------|
D|-------------|


CHORUS
              ^                        ^                  ^                  ^          ^
(And I said: "Don't leave your number, no I'm not callin, Sex's not love and no I'm not fallin...)
D|--------------------------------------------------------------------|
A|--------------------------------------------------------------------|
F|--------------------------------------------------------------------|
C|-5---------8----------5------------3----5---------------------------|       x4
G|-5---------6----------3------------1----3---------------------------|
D|-3------------------------------------------------------------------|

INTRO
VERSE
PRE-CHORUS
CHORUS
PRE-CHORUS
PRE-SOLO
SOLO
CHORUS (until the end)
Tap to rate this tab
 
# A B C D E F G H I J K L M N O P Q R S T U V W X Y Z