Hinder - Put That Record On tab

(/) Slide Up  (\) Slide Down  (h) Hammer On  (p) Pull Off  (b) Bend (r) Release (v) Vibrato

I didn't have time to finish whole song. so this is what you get :P hope it helps.

by the way this is tuned in C# or Db , whatever ya wanna call it.
                          INTRO
E|--14--11------11------14--11------11------14--11--------------|
B|----------14------14----------14------14----------14-14-------|
G|--------------------------------------------------------13\11-|
D|--------------------------------------------------------------|
A|--------------------------------------------------------------|
E|--------------------------------------------------------------|

                          INTRO PT.2
E|--14--11------11------14--11------11------14\--11--14/16\14-|
B|----------14------14----------14------14--------------------|
G|------------------------------------------------------------|
D|------------------------------------------------------------|
A|------------------------------------------------------------|
E|------------------------------------------------------------|


           VERSE
E|-------------------|
B|-------------------|
G|---------6----4----|          Very light distortion  4
D|----4----6----4----|                                 4
A|----4----4----2----|          going into chorus hold 2
E|----4--------------|              but make it palm mutes

                   CHORUS
E|---------------------------------------------|
B|---------------------------------------------|
G|---------6----4----6----8----6----4----------|        LOTS OF DISTORTION
D|----4----6----4----6----8----6----4----6-----|
A|----4----4----2----4----6----4----2----6-----|
E|----4----------------------------------6-----|

                           lITTLE DIDDLE
E|--14--11------11------14--11------11-----------------------------|
B|----------14------14----------14------14-------------------------|
G|------------------------------------------13B-14R-13P-11------11-|
D|----------------------------------------------------------13-----|
A|-----------------------------------------------------------------|
E|-----------------------------------------------------------------|
                                              ^ that part i know probably
                                        confuses the shit out of some. but
                                      I have no clue how to tab it.
                                          just listen and you'll be fine.
Tap to rate this tab
 
# A B C D E F G H I J K L M N O P Q R S T U V W X Y Z