Song name
# A B C D E F G H I J K L M N O P Q R S T U V W X Y Z

Hinder - Red Tail Lights tab

Tuning: D-Standard (DGCFAD)
Credits of the Rythm Guitar goes to Ash Martin.
Tabbed by Quinity
Intro:
D|-------------|
A|-------------|
F|--5---5------|  X4 
C|--5---5------|
G|--3---3------|
D|-------------|
On the Screamm (Ahhh ahhh) the Riff begins:
Intro Riff:
D|----------------------------------------15-14-------12---------------------------|
A|--12-10-8-----8--------8------8---10-8--------15-12----15------------------------|
F|----------9-7---11-7/9---11-7---7-------------------------14-14-12-11----11-12/7-|
C|----------------------------------------------------------------------12---------|
G|---------------------------------------------------------------------------------|
D|---------------------------------------------------------------------------------|

You're waiting in the car as I pull in....
d|-------------------------------------|
A|-------------------------------------| 
F|-9999-7777-55555555----------77777777| x2
C|-9999-7777-55555555-55555555-77777777| 
G|-7777-5555-33333333-55555555-55555555|
D|-xxxxxxxxxxxxxxxxxx-33333333-xxxxxxxx|


Bridge:
Too little, too late, too bad that we couldnt save it...
d|---------------------------|
A|---------------------------|  
F|-55--5-77--7-99--9-1212--12|  
C|-55--5-77--7-99--9-1212--12|  
G|-33--3-55--5-77--7-1010--10|  
D|-xx--x-xx--x-xx--x-x-x---x-| 

Chorus:
Girl, I swear I wasn't runnin` around...
d|------------------------------------|  
A|------------------------------------|  
F|----------77777777-99999999-55555555|  x2
C|-55555555-77777777-99999999-55555555|  
G|-55555555-55555555-77777777-33333333|
D|-33333333-xxxxxxxx-xxxxxxxx-xxxxxxxx|

After Chorus into Verse:
D|-------------------------5--|
A|----7-8--7-8---7-8-8-5-8---5|
F|--7-----7----7--------------|
C|----------------------------|
G|----------------------------|
D|----------------------------|

Then Verse:
Baby just roll that window down...
d|-------------------------------------|
A|-------------------------------------| 
F|-9999-7777-55555555----------77777777| x2
C|-9999-7777-55555555-55555555-77777777| 
G|-7777-5555-33333333-55555555-55555555|
D|-xxxxxxxxxxxxxxxxxx-33333333-xxxxxxxx|

Background-Verse Riff(At least the end part that lead into Chorus):
And we aint gonna get nowhere screaming, but if you believe every word...
D|-----------------------8-8-7---|
A|--8-7---8-7-------7----------8-|
F|-----7------7--------7---------|
C|-------------------------------|
G|-------------------------------|
D|-------------------------------|

Girl, I swear I wasn't runnin` around...
d|------------------------------------|  
A|------------------------------------|  
F|----------77777777-99999999-55555555|  x2
C|-55555555-77777777-99999999-55555555|  
G|-55555555-55555555-77777777-33333333|
D|-33333333-xxxxxxxx-xxxxxxxx-xxxxxxxx|

Solo:									    Slide(fast pick)
D|--------10---------------14^-12-14-15-15^-15-14---------------------------10>18//^--|
A|--10/12----12/10--------------------------------15----------------------10----------|
F|-----------------12-11-9---------------------------14~-12-11------11-12-------------|
C|-------------------------------------------------------------12---------------------|
G|----------------------------------------------------------------12------------------|
D|------------------------------------------------------------------------------------|

Then
Bridge
Chorus

Youre waiting by the car as I pull in....
Em - D - C - C

On the first C the Outro-Riff starts(I pull in...):
D|-------------------------------|
A|-------------------------------|
F|---9-7-------------------------|
C|-----------7-9-----------------|
G|--------10---------------------|
D|-------------------------------|

And this is where the ending begins:
G - D ... fade out on D

Tap to rate this tab
 
# A B C D E F G H I J K L M N O P Q R S T U V W X Y Z