Song name
# A B C D E F G H I J K L M N O P Q R S T U V W X Y Z

Hinder - Loaded And Alone Acoustic chords

Highlighted       Show chord diagrams
First of all i want to say that jloehr did a great job writing the chord sheet up for 
this, but i noticed a few errors (mainly around the pre-chorus), so i thought i'd do an update.

I've also tabbed the intro and solo (they are one and the same)

Please leave comments and enjoy


Tuning: 1/2 Step Down


INTRO - Part 1

Guitar 1 - Fig 1

|----------------|----------------|----------------|----------------|
|----------------|----------------|----------------|----------------|
|----------------|----------------|----------------|----------------|X2
|----5-----5-----|----5-----5-----|----5-----5-----|----5-----5-----|
|7-7-7-7-7-7-7-7-|7-7-7-7-7-7-7-7-|5-5-5-5-5-5-5-5-|3-3-3-3-3-3-3-3-|
|0-0-0-0-0-0-0-0-|0-0-0-0-0-0-0-0-|0-0-0-0-0-0-0-0-|0-0-0-0-0-0-0-0-|

Guitar 2 - Fig 2

|----------------|----------------|----------------|----------------|
|----------------|----------------|----------------|----------------|
|----------------|----------------|----------------|----------------|x2
|2-2-0-2-5-5-4-0-|2-2-0-2-5-5-4-0-|2-2-0-2-5-5-4-0-|5-5-4-4-5-5-7-7-|
|----------------|----------------|----------------|----------------|
|----------------|----------------|----------------|----------------|


INTRO - Part 2

Guitar 1 - Strumming - Fig 3
 Em 				   Csus4            Dsus4   D
|----------------|----------------|----------------|----------------|X2

Guitar 2 (Piano arranged for guitar) - Fig 4

|0---0---2---2---|3---3---2---2---|0---0---2---2---|3---3---5---5---|
|--0---0---0---0-|--0---0---0---0-|--0---0---0---0-|--0---0---0---0-|
|----------------|----------------|----------------|----------------|X2
|----------------|----------------|----------------|----------------|
|----------------|----------------|----------------|----------------|
|----------------|----------------|----------------|----------------|

VERSE
	Em
Just a kid, just a fool
     Csus4	   Dsus4	      D
Always trying to play it so cool
	Em
So he did what he knew
     Csus4             Dsus4             D
He left home and he dropped out of school


Pre-CHORUS
          Csus4       D
He wanted fame, fame, fame
Em            		  Csus4	        D
Even just a little bit of shame, shame, shame
Em
He would sell his soul for it
Csus4       D     Em             Csus4        D
Changed his name, never going to get it back, no


CHORUS
         Em	Csus4	       Dsus4       D
He`s got money, but he`s way off track
         Em	Csus4	       Dsus4       D
So lonely that it makes him think back
     Em         Csus4                 Dsus4        D	Csus4
To his family and his friends and the lady he left back home
Dsus4
He`s loaded and alone
   Em 	 Csus4   Dsus4               D
He`s loaded and alone      .....yeah


VERSE
	Em
Still a kid, still a fool
     Csus4	   Dsus4	        D
Still trying to break all the rules
     	Em
A big house, with too many rooms
     Csus4	Dsus4	    D
An ego, to go with it too

Pre-CHORUS
          Csus4       D
He wanted fame, fame, fame
Em            		  Csus4	        D
Even just a little bit of shame, shame, shame
Em
He would sell his soul for it
Csus4       D     Em             Csus4        D
Changed his name, never going to get it back, no


CHORUS
         Em	Csus4	       Dsus4       D
He`s got money, but he`s way off track
         Em	Csus4	       Dsus4       D
So lonely that it makes him think back
     Em         Csus4                 Dsus4        D	Csus4
To his family and his friends and the lady he left back home
Dsus4
He`s loaded and alone
Em 	 Csus4   Dsus4
He`s loaded and alone

SOLO - 8 bars

Guitar 1:

bars 1-4 - Picking
 Em 				   Csus4           Dsus4   D
|----------------|----------------|---------------|----------------|
bars 5-8 - Strumming
 Em 				   Csus4           Dsus4   D
|----------------|----------------|---------------|----------------|

Guitar 2:

bars 1-4 - Nothing

Bars 5-8 - see intro fig 2

Guitar 3:

bars 1-8 - See intro fig 4



CHORUS

         Em	Csus4	       Dsus4       D
He`s got money, but he`s way off track
         Em	Csus4	       Dsus4       D
So lonely that it makes him think back
     Em         Csus4                 Dsus4        D	Csus4
To his family and his friends and the lady he left back home
         Em	Csus4	       Dsus4       D
He`s got money, but he`s way off track
         Em	Csus4	       Dsus4       D
So lonely that it makes him think back
     Em         Csus4                 Dsus4        D	Csus4
To his family and his friends and the lady he left back home
Dsus4
He`s loaded and alone

OUTRO

Em  Csus4   Dsus4	   D
Loaded and alone,Yea
Em  Csus4   Dsus4	   D
He`s loaded and alone
Em  Csus4   Dsus4	   D
Loaded and alone,Yea
        Csus4             D 	Em
He wanted fame, fame, fame
        Csus4             D	Em
And such a shame, shame, shame
        Csus4             D	Em
He got his fame, fame, fame
        Csus4             D
Such a shame, shame, shame


Em - single strum to end
Tap to rate this tab
# A B C D E F G H I J K L M N O P Q R S T U V W X Y Z