Song name
# A B C D E F G H I J K L M N O P Q R S T U V W X Y Z

Hinder - Bad Mutha Fucka tab

1st tab. Might be a little off, but it's close

This is the rhythm for basically the whole song.
----------------------------------------|
----------------------------------------|
---------2h4p2--------------------------|
-0-0-2h4-------4/0---------0-0h2p0------|
-----------------------0h2---------3----|
-------------------3-3------------------|

1st solo: (0:09)
-------------5p2---------------------------------0h2h5p2p0-----2-0---------|
-----3-3---------5p3---------3-3---------3-3---------------5p3-------3p0-3-|
-2h4-----4p2---------4p2-2h4-----4p2-2h4-----4p2-------------4-------------|
---------------------------------------------------------------------------|
---------------------------------------------------------------------------|
---------------------------------------------------------------------------|

2nd solo: (1:00)
-------------------------------------0h2/5----|
-3-----3-----------------3-----3-----------3--|
---4p2---4p2-4p2---2-------4p2---4p2----------|
-----------------4----------------------------|
----------------------------------------------|
----------------------------------------------|

1st solo is repeated at 1:50.

3rd solo: (3:12)

-10p7-10p7-5-7b-5-5-2h5p2---2p0--------|
--------------------------3-----3p0-3--|
---------------------------------------|
---------------------------------------|
---------------------------------------|
---------------------------------------|

Outro: (3:19)
-----------------------------------0h2h5----|
-3-----3-----5p3---3--3------3-----------3--|
---4p2---4p2-----4------4p2----4p2----------|
--------------------------------------------|
--------------------------------------------|
--------------------------------------------|
Tap to rate this tab
# A B C D E F G H I J K L M N O P Q R S T U V W X Y Z