Song name
# A B C D E F G H I J K L M N O P Q R S T U V W X Y Z

Hinder - Last Kiss Goodbye tab

Last Kiss Goodbye - Hinder
Done all by ear, could be a
few mistakes but very minor ones.
There are only two guitar parts
in this song. This is the lead part.
The other guitar is all chords 
which is in the chord version one
of this song.

Drop D Tuning - DADGBe
 
Intro
e|---------------------------------------------------|
B|-----5/10------12b13r12----12b13r12------10--------|
G|-----------------------12------------9-12--10--12-9|
D|---------------------------------------------------|
A|---------------------------------------------------|
D|---------------------------------------------------|

Verse 1
e|------------------------------------------------------------15|
B|------13-----12----13----------13------15--13----13---12------|
G|--------14-----------14----------14------14--12----12---12----|
D|--------------------------------------------------------------|
A|--------------------------------------------------------------|
D|--------------------------------------------------------------|

e|--------------------------------------------------------------|
B|----12--10~~/-------------------------------------------------|
G|------12--9~/-------------------------------------------------|
D|--------------------------------------------------------------|
A|--------------------------------------------------------------|
D|--------------------------------------------------------------|

Pre-Chorus
e|--------------------------------------------------------------|
B|--------------------------------------------------------------|
G|---------------------------3-5------5-5-5-5-5-5-5-5-5-5-5-5---|
D|---3-3--------3-----3-3----3/5-(PM)-5-5-5-5-5-5-5-5-5-5-5-5---|
A|-1----------0-----1--------1/3-(PM)-3-3-3-3-3-3-3-3-3-3-3-3---|
D|----------0---------------------------------------------------|

Chorus
e|---------------------------------------------------------17---|
B|----18-17-18----20-18----18-17-18----20-18----18-17-18------18|
G|--17---------17--------17---------17--------17---------17-----|
D|--------------------------------------------------------------|
A|--------------------------------------------------------------|
D|--------------------------------------------------------------|

e|--------------------------------------------------------------|   
B|----18-17-18--20-18-17------18-17-18----20-18----18-17-18-----|
G|--17----------------------17---------17--------17---------17--|
D|--------------------------------------------------------------|
A|--------------------------------------------------------------|
D|--------------------------------------------------------------|

e|--------------------17----------------------------------------|
B|20-18----18-17-18------18-----18-17-18--20-18-17--------------|
G|-------17---------17--------17--------------------------------|
D|--------------------------------------------------------------|
A|--------------------------------------------------------------|
D|--------------------------------------------------------------|

Interlude
e|--------------------------------------------------------------|
B|----18-17-----------------------------------------------------|
G|--17------17----14h17--17b18-17b18-17---15-14-----------------|
D|--------------------------------------------------------------|
A|--------------------------------------------------------------|
D|--------------------------------------------------------------|

Verse 2
e|------------------------------15------------|
B|--13------15--13----13---12-------12--10~~/-|
G|----14------14--12----12---12-------12--9~/-|
D|--------------------------------------------|  x2
A|--------------------------------------------|
D|--------------------------------------------|

(PRE CHORUS)

Chorus
e|---------------------------------------------------------17---|
B|----18-17-18----20-18----18-17-18----20-18----18-17-18------18|
G|--17---------17--------17---------17--------17---------17-----|
D|--------------------------------------------------------------|
A|--------------------------------------------------------------|
D|--------------------------------------------------------------|

e|--------------------------------------------------------------|   
B|----18-17-18--20-18-17------18-17-18----20-18----18-17-18-----|
G|--17----------------------17---------17--------17---------17--|
D|--------------------------------------------------------------|
A|--------------------------------------------------------------|
D|--------------------------------------------------------------|

e|--------------------17----------------------------------------|
B|20-18----18-17-18------18-----18-17-18--20-18-17--------------|
G|-------17---------17--------17--------------------------------|
D|--------------------------------------------------------------|
A|--------------------------------------------------------------|
D|--------------------------------------------------------------|

Bridge
e|--------------------------------------------------------------|
B|--18----18-17----17--18--18------17---18----18p17------18-----|
G|----19---------17--17------19--17----------------19-----------|
D|--------------------------------------------------------------|
A|--------------------------------------------------------------|
E|--------------------------------------------------------------|

e|--------------------------------------------------------------|
B|--18p17----------5-----5h6--6-----6-5-------------------------|
G|-------17--14-----5----------7---------5-5-5-5-5-5-5-5-5-5-5-5|
D|---------------------------------------5-5-5-5-5-5-5-5-5-5-5-5|
A|---------------------------------------3-3-3-3-3-3-3-3-3-3-3-3|
E|--------------------------------------------------------------|

e|-------------|
B|-------------|
G|5-5-5-5-10---|
D|5-5-5-5-10---|
A|3-3-3-3-8----|
E|-------------|

(Chorus)
Note:
Try to fit the chorus in from here. It's the same apart from the 
first part of the chorus which is missed out.

Chorus is played till the end.
Tap to rate this tab
# A B C D E F G H I J K L M N O P Q R S T U V W X Y Z