Song name
# A B C D E F G H I J K L M N O P Q R S T U V W X Y Z

Hinder - Everybodys Wrong tab

Hinder Everybody's wrong solo tab. My first one so it's probably sloppy. Standard tuning
/=slide
b= bend

e-------------------------------13/15--15--15--12/15---------------|
B-13b-13----13--15--15--15b--13----------------------15b-15-13-15b-|
G---------14-------------------------------------------------------|
D------------------------------------------------------------------|
A------------------------------------------------------------------|
E------------------------------------------------------------------|

e------------------------------------------------------------------|
B-10-12-13-12-13---10-12-13-12-13-13b-13---------------------------|
G------------------------------------------------------------------|
D------------------------------------------------------------------|
A------------------------------------------------------------------|
E------------------------------------------------------------------|
Tap to rate this tab
# A B C D E F G H I J K L M N O P Q R S T U V W X Y Z