Song name
# A B C D E F G H I J K L M N O P Q R S T U V W X Y Z

Hinder - Shoulda tab

                           Hinder - Shoulda


Intro
e|---------------------------------|
B|---------------------------------|
G|-3-3-3-3-6-6-6-6-----------------|x2
D|-3-3-3-3-6-6-6-6-3-3-3-3-6-6-6-6-|
A|-1-1-1-1-4-4-4-4-3-3-3-3-6-6-6-6-|
E|-----------------1-1-1-1-4-4-4-4-|


Verse 1
e|---------------------------------|
B|---------------------------------|
G|-----------------3-3-3-3-6-6-6-6-|
D|-3-3-3-3-6-6-6-6-3-3-3-3-6-6-6-6-|
A|-3-3-3-3-6-6-6-6-1-1-1-1-4-4-4-4-|
E|-1-1-1-1-4-4-4-4-----------------|

e|-------------------|
B|-------------------|
G|-----------------5~|
D|-3-3-3-3-6-6-6-6-5~|
A|-3-3-3-3-6-6-6-6-3~|
E|-1-1-1-1-4-4-4-4---|

e|---------------------------------|
B|---------------------------------|
G|-3-3-3-3-6-6-6-6-----------------|
D|-3-3-3-3-6-6-6-6-3-3-3-3-6-6-6-6-|
A|-1-1-1-1-4-4-4-4-3-3-3-3-6-6-6-6-|
E|-----------------1-1-1-1-4-4-4-4-|

e|-----------------|
B|-----------------|
G|-3-3-3-3-6-6-6-6-|
D|-3-3-3-3-6-6-6-6-|
A|-1-1-1-1-4-4-4-4-|
E|-----------------|


Chorus
e|-------------------------|
B|-------------------------|
G|-------------8-8-8-3-3-3-|
D|-3-3-3-6-6-6-8-8-8-3-3-3-|
A|-3-3-3-6-6-6-6-6-6-1-1-1-|
E|-1-1-1-4-4-4-------------|

e|----------------------------|
B|----------------------------|
G|-------------8-8-8-3-3-3-6~-|
D|-3-3-3-6-6-6-8-8-8-3-3-3-6~-|
A|-3-3-3-6-6-6-6-6-6-1-1-1-4~-|
E|-1-1-1-4-4-4----------------|


Verse 2
e|---------------------------------|
B|---------------------------------|
G|-----------------3-3-3-3-6-6-6-6-|
D|-3-3-3-3-6-6-6-6-3-3-3-3-6-6-6-6-|
A|-3-3-3-3-6-6-6-6-1-1-1-1-4-4-4-4-|
E|-1-1-1-1-4-4-4-4-----------------|

e|-------------------|
B|-------------------|
G|-----------------5~|
D|-3-3-3-3-6-6-6-6-5~|
A|-3-3-3-3-6-6-6-6-3~|
E|-1-1-1-1-4-4-4-4---|

e|---------------------------------|
B|---------------------------------|
G|-3-3-3-3-6-6-6-6-----------------|
D|-3-3-3-3-6-6-6-6-3-3-3-3-6-6-6-6-|
A|-1-1-1-1-4-4-4-4-3-3-3-3-6-6-6-6-|
E|-----------------1-1-1-1-4-4-4-4-|

e|-----------------|
B|-----------------|
G|-3-3-3-3-6-6-6-6-|
D|-3-3-3-3-6-6-6-6-|
A|-1-1-1-1-4-4-4-4-|
E|-----------------|


Chorus
e|-------------------------|
B|-------------------------|
G|-------------8-8-8-3-3-3-|
D|-3-3-3-6-6-6-8-8-8-3-3-3-|
A|-3-3-3-6-6-6-6-6-6-1-1-1-|
E|-1-1-1-4-4-4-------------|

e|----------------------------|
B|----------------------------|
G|-------------8-8-8-3-3-3-6~-|
D|-3-3-3-6-6-6-8-8-8-3-3-3-6~-|
A|-3-3-3-6-6-6-6-6-6-1-1-1-4~-|
E|-1-1-1-4-4-4----------------|


Bridge
e|-----------------------------------------|
B|-----------------------------------------|
G|-3-3-3-3-3-6-6-6-6-6---------------------|x2
D|-3-3-3-3-3-6-6-6-6-6-3-3-3-3-3-6-6-6-6-6-|
A|-1-1-1-1-1-4-4-4-4-4-3-3-3-3-3-6-6-6-6-6-|
E|---------------------1-1-1-1-1-4-4-4-4-4-|

e|-------------------------|
B|-------------------------|
G|-6~------6-6-6-6-6-6-6-6-|
D|-6~------6-6-6-6-6-6-6-6-|
A|-4~------4-4-4-4-4-4-4-4-|
E|-------------------------|
pm         ................            

e|----------------------------|
B|----------------------------|
G|-33-3--66-6-----------------|
D|-33-3--66-6-3-3-3-3-6-6-6-6-|
A|-11-1--44-4-3-3-3-3-6-6-6-6-|
E|------------1-1-1-1-4-4-4-4-|

e|---------------------------------|
B|---------------------------------|x2
G|-3-3-3-3-6-6-6-6-----------------|
D|-3-3-3-3-6-6-6-6-3-3-3-3-6-6-6-6-|
A|-1-1-1-1-4-4-4-4-3-3-3-3-6-6-6-6-|
E|-----------------1-1-1-1-4-4-4-4-|

e|-----------------|
B|-----------------|
G|-3-3-3-3-6-6-6-6-|
D|-3-3-3-3-6-6-6-6-|
A|-1-1-1-1-4-4-4-4-|
E|-----------------|

e|-------------------------|
B|-------------------------|
G|-------------8-8-8-3-3-3-|
D|-3-3-3-6-6-6-8-8-8-3-3-3-|
A|-3-3-3-6-6-6-6-6-6-1-1-1-|
E|-1-1-1-4-4-4-------------|

e|----------------------------|
B|----------------------------|
G|-------------8-8-8-3-3-3-6~-|
D|-3-3-3-6-6-6-8-8-8-3-3-3-6~-|
A|-3-3-3-6-6-6-6-6-6-1-1-1-4~-|
E|-1-1-1-4-4-4----------------|

THE END!

thats my second tab =) leave a rating or comment thanx!


Tap to rate this tab
 
# A B C D E F G H I J K L M N O P Q R S T U V W X Y Z