Song name
# A B C D E F G H I J K L M N O P Q R S T U V W X Y Z

Hindi Zahra - Stand Up tab

-------------------------------------------------------------------------------
                             Stand Up - Hindi Zahra
-------------------------------------------------------------------------------

http://www.hindi-zahra.com/

Tuning: STANDARD TUNING

e|-------------------------------------------3----3--3--3------3----3----------|
B|---5----5--5--5--------5----5--5--5--------5----5--5--5------5----5----------|
G|---5----5--5--5--------5----5--5--5------------------------------------------|
D|-----------------------------------------2-----------------2-----------------|
A|---------------------3---------------------------2---2---------------3-5-2-5-|
E|-5-------5---5---------------3---3-------------------------------------------|
Tap to rate this tab
# A B C D E F G H I J K L M N O P Q R S T U V W X Y Z