Song name
# A B C D E F G H I J K L M N O P Q R S T U V W X Y Z

Hindi Zahra - Imik Si Mik tab

I love this song. Therefore, I tab this song.

Standard Tuning

Basic Strumming Structure throughout most of the song
     F#m       A        D        C#
e |-----------------------------------------|
B |----2--------5--------7--------6---------|
G |----2--------6--------7--------6---------|
D |----4--------7--------7--------6---------|
A |--------------------5--------4-----------|
E |--2--------5-----------------------------|

Intro and Chorus Riff
      F#m       A        D     C#
e |----------------5------------------------|
B |-------2----------------7-6--------------|
G |------------4/6-----6/7-----6------------|
D |---2/4-----------------------------------|
A |-----------------------------------------|
E |-----------------------------------------|


      F#m       A        D     C#
e |----------------5------------------------|
B |-------2----------------7-6--------------|
G |------------4/6-----6/7------------------|
D |---2/4-----------------------------------|
A |-----------------------------------------|
E |-----------------------------------------|

Verse:
F#m     A
Imik si mik
D           C# 
afousse hou fousse
F#m  A       D   C# 
wink d'winou ira n'ftou    x2

Chorus:
F#m
I will take the train
A                     D
leave the sun for the rain
    C#       F#m  A    D
and come downtown town town
    C#       F#m  A    D    C#
and come downtown town town
             F#m       A
I will spend money and time
     D           C#
lose friends and cry
F#m             A
more than motherless child
       D        C#          F#m A   D
i will come downtown to you now now now
     C#              F#m A   D   C#
come downtown to you now now now

Verse:
F#m     A
Imik si mik
D           C# 
afousse hou fousse
F#m  A       D   C# 
wink d'winou ira n'ftou   

F#m     A
Imik si mik
D           C# 
afousse hou fousse

Bridge thing:
Bm               
lih t'sfa tassa inou
C#
lih toumtz afoussinou
Bm
lih sfane iwaininou
C#
lih toumtz afoussinou

F#m     A
Imik si mik
D           C# 
afousse hou fousse
F#m  A       D   C# 
wink d'winou ira n'ftou   x2

Chorus x1

Verse:
F#m     A         D      C#      
so baby won't you please open the door
F#m           A           D      C#
and let me in till we can forget all
F#m  A       D C#
just you and me
F#m     A        D        C# 
forever downtown in the city
   F#      A
my love my dear
   D       C#
my sweet baby
  F#m     A
i need to see
   D       C#
to feel to breath
     F#m        A
your touch your kiss
     D          C#  
your smile your lips
F#m       A      D               C# 
I need to see, I need to see you now
F#m            A           D    C#
I'll leave the sun for the rain    x3
F#m           A    D    C#
and come down town town town to you now   x2

F#m     A   D C#
Imik si mik
F#m         A     D C#
afousse hou fousse     x4 (or however many times you feel)
Tap to rate this tab
# A B C D E F G H I J K L M N O P Q R S T U V W X Y Z