Song name
# A B C D E F G H I J K L M N O P Q R S T U V W X Y Z

Hippos - The Sand tab

-------------------------------------------------------------------------------
			     THE SAND - The Hippos
-------------------------------------------------------------------------------
Tabbed by:Juan "Mas Puto" Galvan aka: PUNKGUY66-14
Email:myspace.com/1_crazy_beaner

Tuning:standard

e|---------------------|
B|---------------------|     Intro ?x I think 8x idk
G|---------------------|     Light distortion or none at all ?
D|----------44---------|
A|------4-7----7-3-----|
E|----55---------------|

e|--------------------|    
B|--------------------|      This 2x with distortion
G|--------------xx-55-|      Play this a third time but end on 4
D|---7---2---4--xx-55-|                                        4
A|---7---2---4--xx-77-|                                        2
E|---5---0---2--------|

e|---555-xxx-----|  Verse 1
B|---555-xxx-777-|  Play this 6x without distortion kinda like a ska beat
G|---666-xxx-777-|  but with down strokes
D|---777-xxx-777-|
A|---777-xxx-555-|
E|---555-xxx-----|

e|-----------------|
B|-----------------|  play this 2x with distortion
G|-----------------|
D|---5---2-xxxx-44-|
A|---5---2-xxxx-44-|
E|---7---0-xxxx-22-|

e|---555-xxx-----| Verse 2
B|---555-xxx-777-| Play the ska bit again 6x
G|---666-xxx-777-|
D|---777-xxx-777-|
A|---777-xxx-555-|
E|---555-xxx-----|

e|------------------|  
B|------------------|  Play this 2x with distortion
G|------------------|
D|---7---2-xxxx--44-|
A|---7---2-xxxx--44-|
E|---5---0-xxxx--22-|

e|-----------------|
B|-----------------|   End with this
G|---------------7-|
D|---7---2---4---7-|
A|---7---2---4---5-|
E|---5---0---2-----|

e|---------x-555-x-000-x-555-|  Chorous 1
B|---x-777-x-555-x-000-x-555-|  Play this 2x without distortion
G|---x-777-x-666-x-000-x-666-|  note: this probably isn't right but eff it
D|---x-777-x-777-x-222-x-777-|
A|---x-555-x-777-x-222-x-777-|
E|---------x-555-x-000-x-555-|

e|--------------------|    
B|--------------------|      Play this 3x with distortion
G|--------------xx-55-|      Play this a forth time but end on 4
D|---7---2---4--xx-55-|                                        4
A|---7---2---4--xx-77-|                                        2
E|---5---0---2--------|

e|---55-xx----xx-|  Verse 1
B|---55-xx-77-xx-|  Play this 6x without distortion kinda like a ska beat
G|---66-xx-77-xx-|  but with down strokes
D|---77-xx-77-xx-|
A|---77-xx-55-xx-|
E|---55-xx----xx-|

e|-----------------|
B|-----------------|  play this 2x with distortion
G|-----------------|
D|---5---2-xxxx-44-|
A|---5---2-xxxx-44-|
E|---7---0-xxxx-22-|

e|---55-xx----xx-| Verse 2
B|---55-xx-77-xx-| Play the ska bit again 6x
G|---66-xx-77-xx-|
D|---77-xx-77-xx-|
A|---77-xx-55-xx-|
E|---55-xx----xx-|

e|------------------|  
B|------------------|  Play this 2x with distortion
G|------------------|
D|---7---2-xxxx--44-|
A|---7---2-xxxx--44-|
E|---5---0-xxxx--22-|

e|-----------------|
B|-----------------|   End with this
G|---------------7-|
D|---7---2---4---7-|
A|---7---2---4---5-|
E|---5---0---2-----|

e|---------x-555-x-000-x-555-|  Chorous 1
B|---x-777-x-555-x-000-x-555-|  Play this 2x without distortion
G|---x-777-x-666-x-000-x-666-|  note: this probably isn't right but eff it
D|---x-777-x-777-x-222-x-777-|
A|---x-555-x-777-x-222-x-777-|
E|---------x-555-x-000-x-555-|

e|--------------------|    
B|--------------------|      Play this 3x with distortion
G|--------------xx-55-|      Play this a forth time but end on 4
D|---7---2---4--xx-55-|                                        4
A|---7---2---4--xx-77-|                                        2
E|---5---0---2--------|


e|--------------|
B|--------------|  Play this 8x with distortion end on D7
G|---------7777-|                                      A7
D|--7777---7777-|                                      E5
A|--7777---5555-|
E|--5555--------|

e|--------------------|    
B|--------------------|      Play this 3x without distortion
G|--------------xx-55-|      Play this a forth time but end on 4
D|---7---2---4--xx-55-|                                        4
A|---7---2---4--xx-77-|                                        2
E|---5---0---2--------|

e|--------------------|    
B|--------------------|      Play this 3x distortion
G|--------------xx-55-|      Play this a forth time but end on 4
D|---7---2---4--xx-55-|                                        4
A|---7---2---4--xx-77-|                                        2
E|---5---0---2--------|



e|----------------------------|
B|----------------------------| End with this without distortion
G|-------6--9---------9--6----|
D|---77--6--9--11-11--9--6--7-|
A|---77--4--7--9-9----7--4--7-|
E|---55---------------------5-|

Okay thats it! What a drag tabbing this out but o'well hit me up on myspace
if ya gotta reguest for some punk tunes or ska to be tabbed peace foo's


Tap to rate this tab
 
# A B C D E F G H I J K L M N O P Q R S T U V W X Y Z