Song name
# A B C D E F G H I J K L M N O P Q R S T U V W X Y Z

Hippos - Paulina tab

Hey if you like it or have any comments...just let me know...
Stangmatt1965@yahoo.com

      -Matt

Intro/Verse
Riff 1 (Listen to song for Rythym)
e-----------------------------------------------------------|
B-----------------------------------------------------------|
G-----------------------------------------------------------|
D-----7--7--7--7--7--7--7--7----4-x-6-----------------------|
A-----7--7--7--7--7--7--7--7----4-x-6-----------------------|
E-----5--5--5--5--5--5--5--5----2-x-4-----------------------|
palm mute all

Riff 2 (Again, listen for Rythym)
e------------------------------------------------------------|
B------------------------------------------------------------|
G------------------------------------------------------------|
D-----7--7--7--7--7--7--7--7---12---14-----------------------|
A-----7--7--7--7--7--7--7--7---12---14-----------------------|
E-----5--5--5--5--5--5--5--5---10---12-----------------------|
palm mute all

Lead over Intro
e------------------------------------------------|
B-----10--9--10-------10--10--12-----------------|
G--9---------------9-----------------------------|
D------------------------------------------------|
A------------------------------------------------|
E------------------------------------------------|

e------------------------------------------------|
B-----10--9--10-------10--9--10------------------|
G--9---------------9-----------------------------|
D------------------------------------------------|
A------------------------------------------------|
E------------------------------------------------|
After Chorus

e---------------------------------------------------|
B---------------------------------------------------|
G---------------------------------------------------|
D------7---4---7------------------------------------|
A------7---4---7------------------------------------|
E------5---2---5------------------------------------|
No Palm Mutes
Tap to rate this tab
# A B C D E F G H I J K L M N O P Q R S T U V W X Y Z