Song name
# A B C D E F G H I J K L M N O P Q R S T U V W X Y Z

Hippos - Always Something There To Remind Me tab

whats goin on, this is my first tab hope it helps somebody



Intro:  Hit each note once
E|-7--5--4--2--|
B|-7--5--4--2--|
G|-8--6--5--3--|
D|-9--7--6--4--|  2x
A|-9--7--6--4--| 
E|-7--5--4--2--|

Verse:
E|-7--6--5--4--3--7--6--5--4~~|
B|-7--6--5--4--3--7--6--5--4~~|
G|-8--7--6--5--4--8--7--6--5~~|
D|-9--8--7--6--5--9--8--7--6~~|
A|-9--8--7--6--5--9--8--7--6~~|
E|-7--6--5--4--3--7--6--5--4~~|

Pre-chorus:
E|-7--|
B|-7--|
G|-8--|
D|-9--| many times
A|-9--| Listen to song for rythem (same rythem as chorus)
E|-7--| 

Chorus:
E|-----------------------------|
B|-----------------------------|
G|----------9-9-9x9x-----------|
D|-9-9-9x9x-9-9-9x9x-9-9-9x9x--|  
A|-9-9-9x9x-7-7-7x7x-9-9-9x9x--| 
E|-7-7-7x7x----------7-7-7x7x--|

Bridge: not sure if correct, close
E|--------------------------------------|
B|--------------------------------------|
G|-----------------2--------2-----------|
D|-------2-------2--------2---------2---|  
A|-----2-----0-3------0-3---------2-----| 
E|-0-3------------------------0-3-----3-|

Thats it my first tab, thank you very much
Tap to rate this tab
# A B C D E F G H I J K L M N O P Q R S T U V W X Y Z