Song name
# A B C D E F G H I J K L M N O P Q R S T U V W X Y Z

Hirax - Demons - Evil Forces tab

Band:  Hirax
Album: Raging Violence
Song:  Demons - Evil Forces

Copyright (c)  (Metal Blade) (1985)
Version 1.0 - (27/01/07

Transcribed By: Steve
Email:          stephen.elvidge1@ntlworld.com


.  - palm mute           /  - slide up to
\  - slide down to       ~  - vibrato
h  - hammer on           b  - Bend
p  - pull off            Suffixes for bend
t  - tap                 f  - full bend    h - half bend
ph - pinched harmonic    q  - quarter bend t - tap bend
*  - see comment         ^  - Hold bend    r release bend
x  - Stuccatto           ~  - vibrato bend
,  - slight palm mute    () - ghost note, sustained note
"  - tremolo note        <> - harmonic
pb - pre bend

Tuning E A D G B E


 Main Riff

   [-----PM------]  [PM]  [PM]                [PM]  [PM] [PM]  
|----------------------------------------------------------------|
|----------------------------------------------------------------|
|-----------------------------0-------------------------------0--|
|-----------------------------0-------------------------------0--|
|-2---------------3-----3--------2---(2)---2------3-----3--------|
|-0-0-0-0-0-0-0-0-1-0-0-1-0-0----0---(0)---0--0-0-1-0-0-1-0-0----|

               [PM]  [PM] [PM]
|----------------------------------|
|----------------------------------|
|------------------------------0---|
|------------------------------0---|
|-2---(2)---2------3-----3---------|
|-0---(0)---0--0-0-1-0-0-1-0-0-----| Rpt 8 X


|------------------------------|
|------------------------------|
|------------------------------|
|-2--2--2--2-------------------|
|-0--0--0--0--3p2-2-3p2-2-3p2--|
|------------------------------|

        ph~~
|--------------------------------|
|--------------------------------|
|--------------------------------|
|-2--2--7------------------------|
|-0--0------0-0-3p2-2-3p2-2-3p2--|
|--------------------------------|

|------------------------------|
|------------------------------|
|------------------------------|
|-2--2--2--2-------------------|
|-0--0--0--0--3p2-2-3p2-2-3p2--|
|------------------------------|

                     ~~~~~~~~
|------------------------------|
|------------------------------|
|------------------------------|
|-2--2--2--2-------------------|
|-0--0--0--0--3p2-2-3----------|
|------------------------------|

   [-----PM------]  [PM]  [PM]                [PM]  [PM] [PM]  
|----------------------------------------------------------------|
|----------------------------------------------------------------|
|-----------------------------0-------------------------------0--|
|-----------------------------0-------------------------------0--|
|-2---------------3-----3--------2---(2)---2------3-----3--------|
|-0-0-0-0-0-0-0-0-1-0-0-1-0-0----0---(0)---0--0-0-1-0-0-1-0-0----|


               [PM]  [PM] [PM]
|----------------------------------|
|----------------------------------|
|------------------------------0---|
|------------------------------0---|
|-2---(2)---2------3-----3---------|
|-0---(0)---0--0-0-1-0-0-1-0-0-----| Rpt


|-------------------------------------------------------------------|
|-------------------------------------------------------------------|
|-------------------------------------------------------------------|
|-------------------------------------------------------------------|
|-2-----------------------------(2)---------------------------------|
|-0-----------------------------(0)---------------------------------|

 Guitar 1
    [PM] [PM]   [PM]       [PM] [PM]   [PM] 
[--------------------------------------------------|
[--------------------------------------------------|
[--------------------------------------------------|
[-2-----2-----2-----------2-----2-----2-----7--9---|
[-2-----2-----2-----5-\4--2-----2-----2-----5--7---|
[---0-0---0-0---0-0-3-\2----0-0---0-0---0-0--------|
[ Guitar 2
[
[--------------------------------------------------|
[--------------------------------------------------|
[--------------------------------------------------|
[-------------------------------------------7--9---|
[-------------------5-\4--------------------5--7---|
[-------------------3-\2---------------------------|

 Guitar 1
    [PM] [PM]   [PM]       [PM] [PM]   [PM] ph ph~~
[--------------------------------------------------|
[--------------------------------------------------|
[--------------------------------------------------|
[-2-----2-----2-----------2-----2-----2------------|
[-2-----2-----2-----5-\4--2-----2-----2-----5--7---|
[---0-0---0-0---0-0-3-\2----0-0---0-0---0-0--------|
[ Guitar 2
[
[--------------------------------------------------|
[--------------------------------------------------|
[--------------------------------------------------|
[-------------------------------------------7--9---|
[-------------------5-\4--------------------5--7---|
[-------------------3-\2---------------------------|

    [PM] [PM]   [PM]       [PM] [PM]   [PM] 
|--------------------------------------------------|
|--------------------------------------------------|
|--------------------------------------------------|
|-2-----2-----2-----------2-----2-----2-----7--9---|
|-2-----2-----2-----5-\4--2-----2-----2-----5--7---|
|---0-0---0-0---0-0-3-\2----0-0---0-0---0-0--------| Rpt

 Guitar 1
 [-----PM-----]   [-----PM-----]
[------------------------------------|
[------------------------------------|
[------------------------------------|
[-------------------------------7\5--|
[--------------4/5--------------5\3--|
[-000000000000-2/3-000000000000------|
[Guitar 2
[
[------------------------------------|
[------------------------------------|
[------------------------------------|
[-------------------------------7\5--|
[--------------4/5--------------5\3--|
[--------------2/3-------------------| Rpt


 [-----PM-----]   [-----PM-----]
|------------------------------------|
|------------------------------------|
|------------------------------------|
|-------------------------------7\5--|
|--------------4/5--------------5\3--|
|-000000000000-2/3-000000000000------| Rpt 12 X

   [PM] [PM]   [PM]        [PM] [PM]   [PM]
|--------------------------------------------------|
|--------------------------------------------------|
|--------------------------------------------------|
|-2-----2-----2-----7/8/9-2-----2-----2-----9\8\7--|
|-2-----2-----2-----5/6/7-2-----2-----2-----7\6\5--|
|---0-0---0-0---0-0---------0-0---0-0---0-0--------|

   [PM] [PM]   [PM]        [PM]                 h     h
|--------------------------------------------------------|
|--------------------------------------------------------|
|---------------------------------4-4p2p0----------------|
|-2-----2-----2-----7/8/9-2-----2---------4p2p0-4p2p0----|
|-2-----2-----2-----5/6/7-2-----2---------------------3b-|
|---0-0---0-0---0-0---------0-0--------------------------|

   [PM] [PM]   [PM]        [PM] [PM]   [PM]
|--------------------------------------------------|
|--------------------------------------------------|
|--------------------------------------------------|
|-2-----2-----2-----7/8/9-2-----2-----2-----9\8\7--|
|-2-----2-----2-----5/6/7-2-----2-----2-----7\6\5--|
|---0-0---0-0---0-0---------0-0---0-0---0-0--------|

   [PM] [PM]   [PM]        [PM]                 h~~~~     
|-----------------------------------------------------|
|-----------------------------------------------------|
|---------------------------------4-4p2p0-------4-----|
|-2-----2-----2-----7/8/9-2-----2---------4p2p0-------|
|-2-----2-----2-----5/6/7-2-----2---------------------|
|---0-0---0-0---0-0---------0-0-----------------------|

   [PM] [PM]   [PM]        [PM] [PM]   [PM]
|--------------------------------------------------|
|--------------------------------------------------|
|--------------------------------------------------|
|-2-----2-----2-----7/8/9-2-----2-----2-----9\8\7--|
|-2-----2-----2-----5/6/7-2-----2-----2-----7\6\5--|
|---0-0---0-0---0-0---------0-0---0-0---0-0--------|

   [PM] [PM]   [PM]        [PM] [PM]   
|--------------------------------------------|
|--------------------------------------------|
|----------------------------------------0---|
|-2-----2-----2-----7/8/9-2-----2-----5--0---|
|-2-----2-----2-----5/6/7-2-----2-----3------|
|---0-0---0-0---0-0---------0-0---0-0--------|


             h h
|-------------------------------|
|-------------------------------|
|-------------------------------|
|-------------------------------|
|-7--------5-6-7--7--------5-3--|
|-0-0000-0--------0-0000-0------| Rpt 15 x

    [PM] [PM]   [PM]       [PM] [PM]   [PM] 
|--------------------------------------------------|
|--------------------------------------------------|
|--------------------------------------------------|
|-2-----2-----2-----------2-----2-----2-----7--9---|
|-2-----2-----2-----5-\4--2-----2-----2-----5--7---|
|---0-0---0-0---0-0-3-\2----0-0---0-0---0-0--------| Rpt 6 X

   [PM] [PM]   [PM]        [PM] [PM]   [PM]
|--------------------------------------------------|
|--------------------------------------------------|
|--------------------------------------------------|
|-2-----2-----2-----7/8/9-2-----2-----2-----9\8\7--|
|-2-----2-----2-----5/6/7-2-----2-----2-----7\6\5--|
|---0-0---0-0---0-0---------0-0---0-0---0-0--------|
 
   [PM] [PM]   [PM]        [PM] [PM]   
|----------------------------------------------|
|----------------------------------------------|
|----------------------------------------0-----|
|-2-----2-----2-----7/8/9-2-----2-----5--0-----|
|-2-----2-----2-----5/6/7-2-----2-----3-----2--|
|---0-0---0-0---0-0---------0-0---0-0-------0--|






END

Tap to rate this tab
# A B C D E F G H I J K L M N O P Q R S T U V W X Y Z