Song name
# A B C D E F G H I J K L M N O P Q R S T U V W X Y Z

Hirax - Criminal Punishment tab

Band:  Hirax
Album: Hate, Fear and Power
Song:  Criminal Punishment

Copyright (c)  (Metal Blade) (1986)
Version 1.0 - (14/02/07)

Transcribed By: Steve
Email:          stephen.elvidge1@ntlworld.com


.  - palm mute           /  - slide up to
\  - slide down to       ~  - vibrato
h  - hammer on           b  - Bend
p  - pull off            Suffixes for bend
t  - tap                 f  - full bend    h - half bend
ph - pinched harmonic    q  - quarter bend t - tap bend
*  - see comment         ^  - Hold bend    r release bend
x  - Stuccatto           ~  - vibrato bend
,  - slight palm mute    () - ghost note, sustained note
"  - tremolo note        <> - harmonic
pb - pre bend

Tuning E A D G B E



 Intro

 Drums on own

  [------PM-----]
|----------------------------------|
|----------------------------------|
|----------------------------------|
|-----------------6\5---5\4--------|
|-444444444444444-4\3-x-3\2-x-6\5--|
|-222222222222222-------------4\3--| Rpt 3 X

  [------PM-----]
|----------------------------------|
|----------------------------------|
|----------------------------------|
|-----------------6\5---5\4--------|
|-444444444444444-4\3---3\2---6\5--|
|-222222222222222-------------4\3--|

 Guitar on own
  [------PM-----]
|----------------------------------|
|----------------------------------|
|----------------------------------|
|-----------------6\5---5\4--------|
|-444444444444444-4\3-x-3\2-x-6\5--|
|-222222222222222-------------4\3--|

 Guitar 1
  [------PM-----]
[----------------------------------|
[----------------------------------|
[----------------------------------|
[-----------------6\5---5\4--------|
[-444444444444444-4\3---3\2---6\5--|
[-222222222222222-------------4\3--|
[Guitar 2
[----------------------------------|
[----------------------------------|
[----------------------------------|
[----------------------------------|
[-4--------------------------------|
[-2--------------------------------|


 Main Riff
  [------PM-----]
|----------------------------------|
|----------------------------------|
|----------------------------------|
|-----------------6\5---5\4--------|
|-444444444444444-4\3-x-3\2-x-6\5--|
|-222222222222222-------------4\3--| Rpt 6 X

|---------------------------------|
|---------------------------------|
|---------------------------------|
|-----------------8\7---7\6-------|
|-666666666666666-6\5-x-5\4-x-8\7-|
|-444444444444444-------------6\5-| Rpt

  [------PM-----]
|----------------------------------|
|----------------------------------|
|----------------------------------|
|-----------------6\5---5\4--------|
|-444444444444444-4\3-x-3\2-x-6\5--|
|-222222222222222-------------4\3--|

  [------PM-----]
|----------------------------------|
|----------------------------------|
|----------------------------------|
|-----------------6\5---5\4--------|
|-444444444444444-4\3---3\2---6\5--|
|-222222222222222-------------4\3--|

 
 Guitar 1
 [-PM-]   PM  [-PM-]  PM  [-PM-]  PM  [-PM-]  
[--------------------------------------------------|
[--------------------------------------------------|
[--------------------------------------------------|
[-------3---5-------5---3-------3---5-------3-(3)--|
[-------3---5-------5---3-------3---5-------3-(3)--|
[-0-0-0-1-0-3-0-0-0-3-0-1-0-0-0-1-0-3-0-0-0-1-(1)--|
[Guitar 2
[--------------------------------------------------|
[--------------------------------------------------|
[--------------------------------------------------|
[-------------------------------------------3-(3)--|
[-------------------------------------------3-(3)--|
[-------------------------------------------1-(1)--|


 Guitar 1
 [-PM-]   PM  [-PM-]  PM  [-PM-]  PM  [-PM-]  
[----------------------------------------------|
[----------------------------------------------|
[----------------------------------------------|
[-------3---5-------5---3-------3---5-------3--|
[-------3---5-------5---3-------3---5-------3--|
[-0-0-0-1-0-3-0-0-0-3-0-1-0-0-0-1-0-3-0-0-0-1--|
[Guitar 2
[----------------------------------------------|
[----------------------------------------------|
[----------------------------------------------|
[-------------------------------------------3--|
[-------------------------------------------3--|
[-------------------------------------------1--|

 Drum fill

  [---PM--]        [---PM--]
|------------------------------------|
|------------------------------------|
|------------------------------------|
|----------5\4/5/7----------5\4------|
|----------3\2/3/5----------3\2-5\4--|
|-00000000---------00000000-----3\2--| Rpt 6 X


 Guitar 1
 [-PM-]   PM  [-PM-]  PM  [-PM-]  PM  [-PM-]  
[--------------------------------------------------|
[--------------------------------------------------|
[--------------------------------------------------|
[-------3---5-------5---3-------3---5-------3-(3)--|
[-------3---5-------5---3-------3---5-------3-(3)--|
[-0-0-0-1-0-3-0-0-0-3-0-1-0-0-0-1-0-3-0-0-0-1-(1)--|
[Guitar 2
[--------------------------------------------------|
[--------------------------------------------------|
[--------------------------------------------------|
[-------------------------------------------3-(3)--|
[-------------------------------------------3-(3)--|
[------------------------------------------1-(1)--|


 Guitar 1
 [-PM-]   PM  [-PM-]  PM  [-PM-]  PM  [-PM-]  
[------------------------------------------------------------|
[------------------------------------------------------------|
[------------------------------------------------------------|
[-------3---5-------5---3-------3---5-------3------(3)-------|
[-------3---5-------5---3-------3---5-------3------(3)-------|
[-0-0-0-1-0-3-0-0-0-3-0-1-0-0-0-1-0-3-0-0-0-1------(1)-------|
[Guitar 2
[------------------------------------------------------------|
[------------------------------------------------------------|
[------------------------------------------------------------|
[-------------------------------------------3------(3)-------|
[-------------------------------------------3------(3)-------|
[-------------------------------------------1------(1)-------|

 Backing for solo

  [---PM--]        [---PM--]
|------------------------------------|
|------------------------------------|
|------------------------------------|
|----------5\4/5/7----------5\4------|
|----------3\2/3/5----------3\2-5\4--|
|-00000000---------00000000-----3\2--| Rpt 6 X

 Rpt Intro
 Rpt Main Riff and Verse




END

Tap to rate this tab
# A B C D E F G H I J K L M N O P Q R S T U V W X Y Z