Song name
# A B C D E F G H I J K L M N O P Q R S T U V W X Y Z

Hirax - Unholy Sacrifice tab

Band:  Hirax
Album: Hate, Fear and Power
Song:  Unholy Sacrifice

Copyright (c)  (Metal Blade) (1986)
Version 1.0 - (01/03/07)

Transcribed By: Steve
Email:          stephen.elvidge1@ntlworld.com


.  - palm mute           /  - slide up to
\  - slide down to       ~  - vibrato
h  - hammer on           b  - Bend
p  - pull off            Suffixes for bend
t  - tap                 f  - full bend    h - half bend
ph - pinched harmonic    q  - quarter bend t - tap bend
*  - see comment         ^  - Hold bend    r release bend
x  - Stuccatto           ~  - vibrato bend
,  - slight palm mute    () - ghost note, sustained note
"  - tremolo note        <> - harmonic
pb - pre bend

Tuning E A D G B E



 Intro

  [--PM--] [-PM-] [---PM---]
|------------------------------|
|------------------------------|
|------------------------------|
|---------5-----5-----------5--|
|---------5-----5-----------3--|
|-0-0-0-0-3-0-0-3-0-3p0-3p0----|

  [--PM--] [-PM-] [---PM---]
|------------------------------|
|------------------------------|
|------------------------------|
|---------5-----5-----------3--|
|---------5-----5-----------3--|
|-0-0-0-0-3-0-0-3-0-3p0-3p0-1--|

 Rpt Above 4 X

 Bass on own

 Main Riff

 [PM]     [PM]      [PM]    [PM]
|--------------------------------------|
|--------------------------------------|
|--------------------------------------|
|-----5/7-----7\5-------5/7-----3-3/5--|
|-----3/5-----5\3-5-----3/5-----3-3/5--|
|-0-0-----0-0-----3-0-0-----0-0-1-1/3--| Rpt 5 X


      PM    PM    PM
|---------------------------|
|---------------------------|
|---------------------------|
|-7\5---5\4-------------4---|
|-5\3---3\2---5\4---5\4-2---|
|-----0-----0-3\2-0-3\2-----| 

      PM    PM    PM
|---------------------------|
|---------------------------|
|---------------------------|
|-7\5---5\4-----------4-4---|
|-5\3---3\2---5\4---5-2-2---|
|-----0-----0-3\2-0-3-------| 

      PM    PM    PM
|-----------------------|
|-----------------------|
|-----------------------|
|-7\5---5\4-----------4-|
|-5\3---3\2---5\4---5-2-|
|-----0-----0-3\2-0-3---| Rpt 10 X


|------------|
|------------|
|------------|
|-5-/7-------|
|-3-/5--5-\3-|
|-------3-\1-| Rpt 20 X

 [-PM-]     [-PM-]
|-----------------------|
|-----------------------|
|-----------------------|
|-------4/5-------5/7\5-|
|-------2/3-------3/5\3-|
|-2-0-2-----2-0-2-------| Rpt 10 X

 Guitar 1
   [-PM]     [-PM]     [-PM]    [-PM]
[-----------------------------------------|
[-----------------------------------------|
[-----------------------------------------|
[-----------------3/4-----------------3-2-|
[-4-----5\4-------1/2-4-----5\4-------1-2-|
[-2-2-2-3\2-2-0-2-----2-2-2-3\2-2-0-2-----|
[ Guitar 2
[-----------------------------------------|
[-----------------------------------------|
[-----------------------------------------|
[-------------------------------------3---|
[---------------------------------------2-|
[-----------------------------------------|

   [-PM]     [-PM]     [-PM]    [-PM]
|-----------------------------------------|
|-----------------------------------------|
|-----------------------------------------|
|-----------------3/4-----------------3-2-|
|-4-----5\4-------1/2-4-----5\4-------1-2-|
|-2-2-2-3\2-2-0-2-----2-2-2-3\2-2-0-2-----| Rpt 4 X

 Rpt Intro

 Rpt Main Riff and Verse


      PM    PM    PM
|---------------------------|
|---------------------------|
|---------------------4-----|
|-7\5---5\4-----------2-4---|
|-5\3---3\2---5\4-------2---|
|-----0-----0-3\2-0-0-------| 





END

Tap to rate this tab
 
# A B C D E F G H I J K L M N O P Q R S T U V W X Y Z