Song name
# A B C D E F G H I J K L M N O P Q R S T U V W X Y Z

Hirax - Imprisoned By Ignorance tab

Band:  Hirax
Album: Hate, Fear and Power
Song:  Imprisoned By Ignorance

Copyright (c)  (Metal Blade) (1986)
Version 1.0 - (01/03/07)

Transcribed By: Steve
Email:          stephen.elvidge1@ntlworld.com


.  - palm mute           /  - slide up to
\  - slide down to       ~  - vibrato
h  - hammer on           b  - Bend
p  - pull off            Suffixes for bend
t  - tap                 f  - full bend    h - half bend
ph - pinched harmonic    q  - quarter bend t - tap bend
*  - see comment         ^  - Hold bend    r release bend
x  - Stuccatto           ~  - vibrato bend
,  - slight palm mute    () - ghost note, sustained note
"  - tremolo note        <> - harmonic
pb - pre bend

Tuning E A D G B E



 Intro

  [----PM----]
|---------------------|
|---------------------|
|---------------------|
|-------------5\4\3-2-|
|-------------3\2\1/2-|
|-0-0-0-3-2-1---------| Rpt 3 X

  [----PM----]       [-PM--]      [----PM----]     [-PM--]
|---------------------------------------------------------|
|---------------------------------------------------------|
|---------------------------------------------------------|
|-------------5\4\3-2-------3/4/5-------------3/4/5-------|
|-------------3\2\1/2-------1/2/3-5\4\3-------1/2/3-5\4\3-|
|-0-0-0-3-2-1---------0-0-0-------3\2\1-0-0-0-------3\2\1-| 

 [-PM--]     [-PM--]
|--------------------|
|--------------------|
|--------------------|
|-------3/4/5--------|
|-------1/2/3-5\4\3--|
|-0-0-0-------3\2\1--| Rpt

  [----PM----]
|---------------------|
|---------------------|
|---------------------|
|-------------5\4\3-2-|
|-------------3\2\1/2-|
|-0-0-0-3-2-1---------| Rpt 3 X


|-------------------------------------------------------------------|
|-------------------------------------------------------------------|
|-------------------------------------------------------------------|
|-------------5\4---------------------------------------------------|
|-------------3\2-2-------------------(2)---------------------------|
|-0-0-0-3-2-1-----0-------------------(0)----------------trem dive--|


 Riff A
    [------PM--------]   [PM]    [PM]    [PM]     [-----PM----] 
|--------------------------------------------------------------|
|--------------------------------------------------------------|
|--------------------------------------------------------------|
|-2---------------------------5\4-----5\4-----5\4--------------|
|-2-------------------5/7-----3\2-----3\2-----3\2-----5\4-5\4--|
|-0-0-0-0-0-0-0-0-0-0-3/5-0-0-----0-0-----0-0-----0-0-3\2-3\2--| Rpt

 Verse

 Rpt Riff A 4 X

 Drums on own


 [-PM-]       [-PM-]
|---------------------------|
|---------------------------|
|---------------------------|
|------3/5\3/5------5/6\5/6-|
|------3/5\3/5------5/6\5/6-|
|-0000-1/3\1/3-0000-3/4\3/4-|

 [-PM-]       [-PM-]
|---------------------------|
|---------------------------|
|---------------------------|
|------3/5\3/5------5/6\5\3-|
|------3/5\3/5------5/6\5\3-|
|-0000-1/3\1/3-0000-3/4\3\1-|

 [-PM-]       [-PM-]
|---------------------------|
|---------------------------|
|---------------------------|
|------3---3/5------5/6\5/6-|
|------3---3/5------5/6\5/6-|
|-0000-1-0-1/3-0000-3/4\3/4-|

 [-PM-]       [-----PM-----]
|---------------------------|
|---------------------------|
|---------------------------|
|------3---3/5------6\5\4\3-|
|------3---3/5------6\5\4\3-|
|-0000-1-0-1/3-0000-4\3\2\1-|

 [-PM-]       [-PM--]
|---------------------------|
|---------------------------|
|---------------------------|
|------3---3/5------5/6\5/6-|
|------3---3/5------5/6\5/6-|
|-0000-1-0-1/3-0000-3/4\3/4-|

 [-PM-]       [------PM-----]
|---------------------------|
|---------------------------|
|---------------------------|
|------3---3/5------6\5\4\3-|
|------3---3/5------6\5\4\3-|
|-0000-1-0-1/3-0000-4\3\2\1-|




|-------------------------------------------------------------------|
|-------------------------------------------------------------------|
|-------------------------------------------------------------------|
|-------------------------------------------------------------------|
|-2-----------------------------(2)---------------------------------|
|-0-----------------------------(0)---------------------------------|

 Backing for solo

 [-PM-]       [-PM--]
|---------------------------|
|---------------------------|
|---------------------------|
|------3---3/5------5/6\5/6-|
|------3---3/5------5/6\5/6-|
|-0000-1-0-1/3-0000-3/4\3/4-|

 [-PM-]       [------PM-----]
|---------------------------|
|---------------------------|
|---------------------------|
|------3---3/5------6\5\4\3-|
|------3---3/5------6\5\4\3-|
|-0000-1-0-1/3-0000-4\3\2\1-|

 Rpt above

 [-PM-]       [-PM--]
|---------------------------|
|---------------------------|
|---------------------------|
|------3---3/5------5/6\5/6-|
|------3---3/5------5/6\5/6-|
|-0000-1-0-1/3-0000-3/4\3/4-|

 [-PM-]       [------PM-----]
|---------------------------|
|---------------------------|
|---------------------------|
|------3---3/5------6\5\4\3-|
|------3---3/5------6\5\4\3-|
|-0000-1-0-1/3-0000-4\3\2\1-|

 Rpt above 3 X

 [PM]     [PM]    [PM]    [PM]
|------------------------------------|
|------------------------------------|
|------------------------------------|
|-------------4\3-------------4\3/4--|
|-----3/5-----2\1-----3/5-----2\1/2--|
|-0-0-1/3-0-0-----0-0-1/3-0-0--------| Rpt 4 X

  [PM]   [PM] [PM]      
|----------------------|
|----------------------|
|----------------------|
|----------------------|
|-----------------6\5--|
|-0-0-1p0-0-3p0-0-4\3--| Rpt 8 X

 Rpt Riff A

|------|
|------|
|------|
|-2----|
|-2----|
|-0----|



END

Tap to rate this tab
 
# A B C D E F G H I J K L M N O P Q R S T U V W X Y Z