Song name
# A B C D E F G H I J K L M N O P Q R S T U V W X Y Z

His Name Shall Breathe - In Circles We Speak tab

This is a first for me. I've never tried to translate anything by ear before, but I have
to say this came out pretty good.I only tabbed up to a certain part of the song and any
help to further this tabs will be greatly appreciated. That being said, what we have 
already down is very nice to listen to as well as fun to play.

Standard Tuning: EADGBe


Intro x5

e|-------------------------------|
G|-------------------------------|
B|-----0-------0------0-------6--|
D|---4---4---4------4---4---4----|
A|-2-------2------5-------0------|
E|-------------------------------|

|--------------------------------|
|--------------------------------|
|-----2-------2-------0h2p0------|
|---0---0---0---0---4-------4-2p0|
|--------------------------------|
|-3-------3-------3--------------|


x2

|--------------------------------|
|--------------------------------|
|-----0-------0------2-------2---|
|---2---2---2------0---0---0-----|
|--------------------------------|
|-0-------0------2-------2-------|

|--------------------------------|
|--------------------------------|
|-----4-------4---------6-------6|
|---0---0---0---0-----7---7---0--|
|--------------------------------|
|-3-------3-------3/5-------5----|

x1

|--------------------------------|
|--------------------------------|
|-----0-------0------2-------2---|
|---2---2---2------0---0---0-----|
|--------------------------------|
|-0-------0------2-------2-------|

|--------------------------------|
|--------------------------------|
|-----4-------4---2--------------|
|---0---0---0---0-0--------------|
|-----------------0--------------|
|-3-------3-------0--------------|

x5

|--------------------------------|
|--------------------------------|
|-----0-------0------0-------6---|
|---4---4---4------4---4---4-----|
|-2-------2------5-------0-------|
|--------------------------------|

|--------------------------------|
|--------------------------------|
|-----2-------2-------0h2p0------|
|---0---0---0---0---4-------4-2p0|
|--------------------------------|
|-3-------3-------3--------------|

x2

|--------------------------------|
|--------------------------------|
|-----0-------0------2-------2---|
|---2---2---2------0---0---0-----|
|--------------------------------|
|-0-------0------2-------2-------|

|--------------------------------|
|--------------------------------|
|-----4-------4---------6-------6|
|---0---0---0---0-----7---7---0--|
|--------------------------------|
|-3-------3-------3/5-------5----|

x1

|--------------------------------|
|--------------------------------|
|-----0-------0------2-------2---|
|---2---2---2------0---0---0-----|
|--------------------------------|
|-0-------0------2-------2-------|

|--------------------------------|
|--------------------------------|
|-----4-------4---2--------------|
|---0---0---0---0-0--------------|
|-----------------0--------------|
|-3-------3-------0--------------|

https://www.facebook.com/hisnameshallbreathe
Tap to rate this tab
 
# A B C D E F G H I J K L M N O P Q R S T U V W X Y Z