Song name
# A B C D E F G H I J K L M N O P Q R S T U V W X Y Z

Hiss - Triumph tab

The Hiss - Triumph

I can't find this bands homepage, so here's the single at amazon if anyone is interested 

http://www.amazon.co.uk/exec/obidos/ASIN/B0000894NN/qid=1058107093/
     sr=1-1/ref=sr_1_2_1/026-2300158-7197205

Standard tuning

ok, there aren't many riffs to this song, this first riff has a flangery type effect on it
riff 1
|------------
|------------
|------------
|----------5-
|-7-7-9^-7-3-
|-5-5-5--5---

riff 2
|---------------------------------
|---------------------------------
|---------------------------------
|-5-5-5-5-5-5-5-5-3-3-2-2-2-2-2-2-
|-5-5-5-5-5-5-5-5-3-3-2-2-2-2-2-2-
|-3-3-3-3-3-3-3-3-1-1-0-0-0-0-0-0-

riff 3 (vocals for first 8 strums)
|-----------------------------------------------
|-----------------------------------------------
|-----------------------------------------------
|---------------------------------------5-5-5-5-
|-7-7-7-7-7-7-7-7-7--7-7-9-9-9-7--7-7-7-3-3-3-3-
|-5-5-5-5-5-5-5-5-5--5-5-5-5-5-5--5-5-5---------

Outro (strum)
|------------------------
|------------------------
|------------------------
|------5----7----10-9----
|-7----3----5----8--7--7-
|-5--------------------5-

_________________________
Order:
riff 1 x 8
riff 2 x 1
riff 1 x 2
riff 3 x 4
riff 2 x 1
riff 1 x 2
riff 3 x 4
riff 2 x 1
riff 1 x 2
riff 2 x 1
riff 1 x 8
riff 2 x 1
riff 1 x 2
riff 3 x 4
riff 2 x 2
Outro

any questions? andrewbiles@hotmail.com
Tap to rate this tab
# A B C D E F G H I J K L M N O P Q R S T U V W X Y Z