Song name
# A B C D E F G H I J K L M N O P Q R S T U V W X Y Z

Hiss - Back On The Radio tab

Help us improve GuitareTab! Take a short survey!
-------------------------------------------------------------------------------
			     Back On The Radio - The Hiss
-------------------------------------------------------------------------------

Tuning: Standard

e|---------------------------------------------------------------------------|
B|---------------------------------------------------------------------------|
G|--4-4--4-4--4-4--4-4--7--7--7--7--7--7--7----------------------------------|
D|--4-4--4-4--4-4--4-4--7--7--7--7--7--7--7----------------------------------|
A|--0h2--0h2--0h2--0h2--5--5--5--5--5--5--5----------------------------------|
E|---------------------------------------------------------------------------|

e|---------------------------------------------------------------------------|
B|---------------------------------------------------------------------------|
G|--------------------------4--4--4-4--4-4--4-4------------------------------|
D|--5--5--5--5--4--4--4--4--4--4--4-4--4-4--4-4------------------------------|
A|--5--5--5--5--4--4--4--4--2--2--0h2--0h2--0h2------------------------------|
E|--3--3--3--3--2--2--2--2---------------------------------------------------|

e|---------------------------------------------------------------------------|
B|--9b10--7---------------------9b10--7--------------------------------------|
G|--9b10--7----------------7h9--9b10--7----------------7h9-------------------|
D|-----------9--9--9--7h9----------------9--9--9--7h9------------------------|
A|---------------------------------------------------------------------------|
E|---------------------------------------------------------------------------|

e|---------------------------------------------------------------------------|
B|--9b10--7-------9b10--7----------------------------------------------------|
G|--9b10--7-------9b10--7----------------------------------------------------|
D|-----------9-------------9-------------------------------------------------|
A|---------------------------------------------------------------------------|
E|---------------------------------------------------------------------------|

e|---------------------------------------------------------------------------|
B|---------------------------------------------------------------------------|
G|--4-4--4-4--4-4--4-4--7--7--7--7--7--7--7----------------------------------|
D|--4-4--4-4--4-4--4-4--7--7--7--7--7--7--7----------------------------------|
A|--0h2--0h2--0h2--0h2--5--5--5--5--5--5--5----------------------------------|
E|---------------------------------------------------------------------------|

e|---------------------------------------------------------------------------|
B|---------------------------------------------------------------------------|
G|--------------------------4--4--4-4--4-4--4-4------------------------------|
D|--5--5--5--5--4--4--4--4--4--4--4-4--4-4--4-4------------------------------|
A|--5--5--5--5--4--4--4--4--2--2--0h2--0h2--0h2------------------------------|
E|--3--3--3--3--2--2--2--2---------------------------------------------------|

| /  slide up
| \  slide down
| h  hammer-on
| p  pull-off
| ~  vibrato
| +  harmonic
| x  Mute note
===============================================================================
Related for Back On The Radio tab