Hit-5 - Running tab

Artist: HIT-5
Song: Running 单曲

Tuning: Standard


Intro: (can also be played trough the song)
e|------------------------------------------------------------|
B|------------------------------------------------------------|
G|------------------------------------------------------------|
D|--7-7-7--9-9-10--7-7-7--9-9-10--7-7-7--9-9-10--9-9-9-9-5-7--|
A|--7-7-7--9-9-10--7-7-7--9-9-10--7-7-7--9-9-10--9-9-9-9-5-7--|
E|--5-5-5--7-7-8---5-5-5--7-7-8---5-5-5--7-7-8---7-7-7-7-3-5--| x2

or
e|-----------------------------------------------------|
B|--2-2--4-4-5---2-2--4-4-5--2-2--4-4-5---4--4-4-4---2-|
G|-------------------------------------------------5---|
D|-----------------------------------------------------|
A|-----------------------------------------------------|
E|-----------------------------------------------------|

Verse:
e|-------------------------------------|
B|---------------------------------8---|
G|-9--9-----9-9-9-9-9-9--9-9-9-9-9---9-|
D|-------------------------------------|
A|-------------------------------------|
E|-------------------------------------|

e|---------------------------------------|
B|---------------------------------------|
G|-9--9--9--9-9-9-9-9-9--7-7-7-7-7--10-9-|
D|---------------------------------------|
A|---------------------------------------|
E|---------------------------------------|

e|-------------------------------------|
B|---------------------------------8---|
G|-9--9--9--9-9-9-9-9-9--9-9-9-9-9---9-|
D|-------------------------------------|
A|-------------------------------------|
E|-------------------------------------|

e|-----------------------------|
B|-----------------------------|
G|-9--9--9--9-9-9-9-9-9---7--7-|
D|-----------------------------|
A|-----------------------------|
E|-----------------------------|

Prechorus:
e|-------------------------------------------------------|-1.time-|-2.time-|
B|-------------------------------------------------------|--------|-8-8-8~-|
G|-9-7------9-7-------9-7------9-7-------9-7-------------|-7-7-7~-|--------|
D|-----10-7-----10-7------10-7-----10-7------10-10-10-10-|--------|--------|
A|-------------------------------------------------------|--------|--------|
E|-------------------------------------------------------|--------|--------| x2

Chorus:
e|-----------------------------------| |---------------------------------|
B|-----------------------------------| |---------------------------------|
G|-----------------------------------| |---------------------------------|
D|-7-7-9--10-9-10-9---7-7-9--10-9-10-| |-7-7-9--10-9-10-9--9-9-9--9----7-|
A|-----------------------------------| |----------------------------10---|
E|-----------------------------------| |---------------------------------|

e|-----------------------------------| |---------------------------------|
B|-----------------------------------| |--------------------8-8--8-10-10-|
G|-----------------------------------| |---------------------------------|
D|-7-7-9--10-9-10-9---7-7-9--10-9-10-| |-7-7-9--10-9-10-9----------------|
A|-----------------------------------| |---------------------------------|
E|-----------------------------------| |---------------------------------|

Postchorus - Rap part (same as the intro)

Verse

Prechorus

Chorus x3

Break (same as the intro)

Ending:
e|--------------|
B|--------------|
G|--------------|
D|--------------|
A|--------------|
E|--5-5--7-7-8--|

http://hit-5.g.ifensi.com/
Tap to rate this tab
 
# A B C D E F G H I J K L M N O P Q R S T U V W X Y Z