Guitaretab - guitar tabs
Song name
# A B C D E F G H I J K L M N O P Q R S T U V W X Y Z

Hit Me Tv - Not A Real Talent tab

HIT ME TV guitarist Frank van Roessel tunes his guitar Half-Step down.

INTRO (guitar 1)
e||------------------------------------------||
B||------------------------------------------||
G||------------------------------------------||
D||--10--14--16--19--------------------------||
A||-----------------------------------------||
e||--10--13--16--18-------------------------||
(repeat)

INTRO (guitar 2)
e||------------------------------------------||
B||------------------------------------------||
G||--10--10--9--9--7--7----------------------||
D||------------------------------------------||
A||-----------------------------------------||
e||-----------------------------------------||
(repeat)

VERSE (guitar 1)
e||------------------------------------------||
B||------------------------------------------||
G||--10--10--10--10--10--10---(ETC)----------||
D||---0---0---0---0---0---0------------------||
A||-----------------------------------------||
e||----10--10--10--10--10--10---------------||
(only downstrokes, repeat)

VERSE (guitar 2)
e||----------||----------||------------------||
B||----------||----------||------------------||
G||--10---3--||--10---3--||--10--------------||
D||---0---0--||---0---0--||---0--------------||
A||-------1--||-------1--||------------------||
e||--10------||--10------||--10--------------||
						 (12x)	
CHORUS (guitar 1)
e||--------------------------------------------------------------||
B||--------------------------------------------------------------||
G||-10--10--9--9--7--7---7--7----------------7--7----------------||
D||----------------------------10--10--8--8--------10--10--8--8--||
A||-------------------------------------------------------------||
e||-------------------------------------------------------------||

e||--------------------------------------------------------------||
B||--------------------------------------------------------------||
G||-10--10--9--9--7--7---10--10--9--9--7--7---10--10--9--9--7--7-||
D||--------------------------------------------------------------||
A||-------------------------------------------------------------||
e||-------------------------------------------------------------||
[ Tab from: http://www.guitaretab.com/h/hit-me-tv/180560.html ]
e||--------------------------------------------------------------||
B||--------------------------------------------------------------||
G||-7--7----------------7--7-------------------------------------||
D||-------10--10--8--8--------10--10-----------------------------||
A||----------------------------------10--10---------------------||
e||-------------------------------------------------------------||

e||--------------------------------------------------------------||
B||--------------------------------------------------------------||
G||-10--10--9--9--7--7---10--10--9--9--7--7---7--7---------------||
D||-------------------------------------------------10--10--8--8-||
A||-------------------------------------------------------------||
e||-------------------------------------------------------------||

e||--------------------------------------------------------------||
B||--------------------------------------------------------------||
G||-10--10--9--9--7--7---10--10--9--9--7--7--10--10--9--9--7--7--||
D||--------------------------------------------------------------||
A||-------------------------------------------------------------||
e||-------------------------------------------------------------||

e||--------------------------------------------------------------||
B||--------------------------------------------------------------||
G||-7--7----------------7--7-------------------------------------||
D||-------10--10--8--8--------10--10-----------------------------||
A||----------------------------------10--10---------------------||
e||-------------------------------------------------------------||

CHORUS (guitar 2/ in background)
e||------------------------------------------||
B||------------------------------------------||
G||-10--3--4--7------------------------------||
D||--0--0--0--0------------------------------||
A||--x--1--x--x-----------------------------||
e||-10-----3--6-----------------------------||
(only downstrokes, repeat during chorus)

BRIDGE
e||-10--10--10--10--10------10---------------||
B||-10--10--10--10------10------10-----------||
G||-10--10--10--10---------------------------||
D||------------------------------------------||
A||-----------------------------------------||
e||-----------------------------------------||

www.hitmetv.net

Related for Not A Real Talent tab