Guitaretab - guitar tabs
Song name
# A B C D E F G H I J K L M N O P Q R S T U V W X Y Z

Hit Me Tv - Nice Guys tab

HIT ME TV guitarist Frank van Roessel tunes his guitar Half- Step down.

INTRO
e||----------------------------------------------------------||
B||-------5-----9-----------------------------------5----9---||
G||-----5--5--10-10--------------------------------5-5-10-10-||
D||-5-7------9------------7---7-----7-7-------7-5-7---9------||
A||---------------------------------------------------------||
E||----------------5-5-5-5-5-5-5-5-5---5-5-5-5-5-------------||

VERSE
e||----------------------------------------------------------||
B||---------------------------------------------5----9-------||
G||--------------------------------------------5-5-10-10-----||
D||--------7---7-----7-7-------7---7-7-7-7-7-7-5-7----9------||
A||----------------------------------------------------------||
E||-5-5-5-5-5-5-5-5-5---5-5-5-5-5-5-------5-----------------||
(2x)
[ Tab from: http://www.guitaretab.com/h/hit-me-tv/180561.html ]
PRECHORUS
e||----------------------------------------------------------||
B||----------------------------------------------------------||
G||----------------------------------------------------------||
D||---------------------------3-3-3-3-3-3-3-2-2-2-2----------||
A||------------3-3---------5-5------------------------------||
E||-5-5-5-5-5-5-5-3-3-3-3-3-3----------------------4-4-4-4---||
(2x)

CHORUS
e||----------------------------------------------------------||
B||----------------------------------------------------------||
G||-----------------------------------0----------------------||
D||-2-2---2-2---2-2------3-----2--3-3-0----------------------||
A||----3-----3-----3----3-----3-----------------------------||
E||-----5-----5------4-4---4-4------------------------------||


BRIDGE 
e||----------------------------------------------------------||
B||----------------------------------------------------------||
G||-10--7--10--7--10--10--3--2--3--3--3--3--3--3-------------||
D||--0--0---0--0---0---0--0--1--0--0--0--0--0--0-------------||
A||--------------------------3-----1-----1--1---------------||
E||-10--7--10--7--10---9--3--1--3-----3--------3------------||
(2x)

www.hitmetv.net
Related for Nice Guys tab