Guitaretab - guitar tabs
Song name
# A B C D E F G H I J K L M N O P Q R S T U V W X Y Z

Hit Me Tv - A Public Thing tab

HIT ME TV guitarist Frank van Roessel tunes his guitar half- step down

VERSE
e||-------------------------------------------------------------||
B||-------------------------------------------------------------||
G||-------------------------------------------------------------||
D||-------------------------------------------------------------||
A||-4--4--4--4--2-4--4--8-8-8-6-8--4--4--4--2-4--4--8-8-6------||
E||------------------------------------------------------------||
[ Tab from: http://www.guitaretab.com/h/hit-me-tv/180562.html ]
CHORUS
e||-------------------------------------------------------------||
B||-------------------------------------------------------------||
G||-------------------------------------------------------------||
D||---9-----9-----8-----6--8--6-----9-----9-----8-----6--8--6---||
A||-----9-----9-----9-----------9-----9-----9-----9-----------9-||
E||-7-----7-----7-----9-----------7-----7-----7-----9----------||

e||-------------------------------------------------------------||
B||-------------------------------------------------------------||
G||---------------9-----9-----8-----8---------------------------||
D||---9-----9-------9-----9-----9-----9---9---------------------||
A||-----9-----9-------7-----7-----7-----7----------------------||
E||-7-----7-----7----------------------------------------------||

www.hitmetv.net
Related for A Public Thing tab