Guitaretab - guitar tabs
Song name
# A B C D E F G H I J K L M N O P Q R S T U V W X Y Z

Hit Me Tv - Maybe The Dancefloor tab

HIT ME TV guitarist Frank van Roessel tunes his guitar half- step down.

VERSE
e||-0-0-0-0-0-0-0-0-0-0-0-0-0-0-0-0-0-0-0-0-0-0-0-0-0-0-0-0-0-0-||
B||-5-5-5-5-5-5-5-6-6-6-8-8-8-8-8-5-5-5-5-5-5-5-6-6-6-3-3-3-5-6-||
G||-------------------------------------------------------------||
D||-------------------------------------------------------------||
A||------------------------------------------------------------||
E||------------------------------------------------------------||

BRIDGE 
e||------------------------------------------------||
B||------------------------------------------------||
G||-------14-14-------------------14-14------------||
D||-------------14-14-15-15------------14-14-15-15-||
A||-12-12-------------------12-12------------------||
E||-----------------------------------------------||

e||------------------------------------------------||
B||------------------------------------------------||
G||-------14-14-------------------14-14------------||
D||-------------14-14-15-15------------14-14-15-15-||
A||-12-12-----------------------------------------||
E||-------------------------13-13-----------------||

CHORUS
e||------------------------------------------------------------||
B||------------------------------------------------------------||
G||-19--19--19--19--19--19--21--21--19--19--19--19--19--19-----||
D||------------------------------------------------------------||
A||---17--17--17--17--17--17--19--19--17--17--17-17--17--17---||
E||-----------------------------------------------------------||
[ Tab from: http://www.guitaretab.com/h/hit-me-tv/180566.html ]
e||------------------------------------------------------------||
B||----------------------13-13--13-13--8-8--10-10--8-8--10--10-||
G||----------------------12-12--12-12--7-7--10-10--7-7--10--10-||
D||----------17------------------------------------------------||
A||-17-19-20----21-19-20---------------------------------------||
E||-----------------------------------------------------------||

BRIDGE
e||------------------------------------------------------------||
B||-8-8--10-10--8-8--10--10--10--8-8--10-10--8-8--10--10--10---||
G||-7-7--10-10--7-7--10--10--10--7-7--10-10--7-7--10--10--10---||
D||------------------------------------------------------------||
A||------------------------------------------------------------||
E||-----------------------------------------------------------||

e||------------------------------------------------------------||
B||-8-8--10-10--8-8--10-10--8-8--10-10--8-8--10-10--8-8--10-10-||
G||-7-7--10-10--7-7--10-10--7-7--10-10--8-8--10-10--8-8--10-10-||
D||------------------------------------------------------------||
A||------------------------------------------------------------||
E||-----------------------------------------------------------||

e||----------------------------------12------------------------||
B||-8-8--10-10-----10-10-10--10-13------13---------------------||
G||-7-7--10-10--7-9--9--9--9------12--12--12-------------------||
D||------------------------------------------------------------||
A||------------------------------------------------------------||
E||-----------------------------------------------------------||

www.hitmetv.net
Related for Maybe The Dancefloor tab