Song name
# A B C D E F G H I J K L M N O P Q R S T U V W X Y Z

Hit The Lights - On And On tab

E----------------------12-12-----------------------------------------------:
B------------15-15---------------19-17-15--------------15-15---------------:
G-12-12-14-14-----14-14-----14-14--------14-12-12-14-14-----14-14-----14-14:
D----------------------------------------------------------------12-12-----:
A--------------------------------------------------------------------------:
E--------------------------------------------------------------------------:

E-----------------------:
B-15-15-----------------:
G------14-14------------:
D-----------------------:
A-----------------------:
E-----------------------:

Bridge/Outro

E------------------------------:
B------------------------------:
G------------------------------:
D-888888888888888--55555555555-:
A-888888888888888--55555555555-:
E-888888888888888--55555555555-:
Tap to rate this tab
# A B C D E F G H I J K L M N O P Q R S T U V W X Y Z