Song name
# A B C D E F G H I J K L M N O P Q R S T U V W X Y Z

Hit The Lights - Tell Me Where You Are Acoustic tab

Hit The Lights
Tell Me Where You Are (Acoustic)
Coast To Coast EP (2009)

Tuning: Standard

Intro/verse 1 (This is played through most of the song)
e|------0-----0---------0-----0------|
B|----0-----0-----0---4-----4---4----|
G|--2-----2-----2---4-----6-------4--|
D|-----------------------------------|
A|-----------------------------------|
E|-----------------------------------|

Piano part in the intro
e|--19--16---19---------------19--16---19-----------|
B|---------------19---17--19---------------19---17--|
G|--------------------------------------------------| x2
D|--------------------------------------------------|
A|--------------------------------------------------|
E|--------------------------------------------------|

Pre-chorus 1 on the piano
e|--------12------------11-12-11-12-11-----|
B|-----12----12----(x3)----------------12--|
G|--14----------14-------------------------| x2
D|-----------------------------------------|
A|-----------------------------------------|
E|-----------------------------------------|
Just keep doing the intro thing on another guitar during this

Chorus 1 - Look at the chords in the lyrics!

Chorus 1 on the piano
e|--19--16---19-------------16-14--19--16---19-------------16----------|
B|---------------19---17-19---------------------19---17-19------17-19--|
G|---------------------------------------------------------------------|
D|---------------------------------------------------------------------|
A|---------------------------------------------------------------------|
E|---------------------------------------------------------------------|

continued
--19--16---19-------------16--------16-14------|
---------------19---17-19----16--17--------17--|
-----------------------------------------------|
-----------------------------------------------|
-----------------------------------------------|
-----------------------------------------------|

Back to this for verse 2
e|------0-----0---------0-----0------|
B|----0-----0-----0---4-----4---4----|
G|--3-----3-----3---4-----6-------4--|
D|-----------------------------------|
A|-----------------------------------|
E|-----------------------------------|

Piano
e|--19--16---19---------------19--16---19-----------|
B|---------------19---17--19---------------19---17--|
G|--------------------------------------------------| x1
D|--------------------------------------------------|
A|--------------------------------------------------|
E|--------------------------------------------------|

Back to this for pre-chorus 2
e|--------12------------11-12-11-12-11-----|
B|-----12----12----(x3)----------------12--|
G|--14----------14-------------------------| x2
D|-----------------------------------------|
A|-----------------------------------------|
E|-----------------------------------------|

Chorus 2 - Look at the chords in the lyrics!

Chorus 2 on the piano
e|--19--16---19-------------16-14--19--16---19-------------16----------|
B|---------------19---17-19---------------------19---17-19------17-19--|
G|---------------------------------------------------------------------|
D|---------------------------------------------------------------------|
A|---------------------------------------------------------------------|
E|---------------------------------------------------------------------|

continued
--19--16---19-------------16--------16-14------|
---------------19---17-19----16--17--------17--|
-----------------------------------------------|
-----------------------------------------------|
-----------------------------------------------|
-----------------------------------------------|

Bridge on the piano
e|---------19-------19--------19--19------------------16---------------19--16------|
B|--17-19------17-19----17-19--------17------17---19------19--16--17-----------19--|
G|--------------------------------------(x3)---------------------------------------|
D|---------------------------------------------------------------------------------|
A|---------------------------------------------------------------------------------|
E|---------------------------------------------------------------------------------|

Chords used below:
    E    A/D    A   (N.C. means there's no chord playing)
e|--0--|--0--|--0--|
B|--0--|--0--|--2--|
G|--1--|--2--|--2--|
D|--2--|--2--|--2--|
A|--2--|--0--|--0--|
E|--0--|--x--|--0--|

Lyrics: (Sorry I couldn't find Lacey Steinel's part)

N.C.
I found how to get to her now.
I'll whisper in her ear when she's asleep,
And beg her to love me,
When the morning comes she'll never know.
'Cause right now, I think I'm on my way out.
I've been tying bells to window screens,
So I can hear her leave in the morning,
But it never helps.

N.C.
(And I'll never know)
Where you like to go when you're all alone,
And why you can't be reached,
Does anybody know?
You're breaking up again,
Are you listening to anything I've said?

N.C               E
Tell me where you are and I'll find you.
                A/D
Tell me what it takes to see this through.
                A
Tell me what it takes t0 get to you,
         A/D      A       A/D
And I'll be there waiting.

N.C.
She sees through any move that I use.
See I've been falling head over her heels,
So when she disappears, she knows I'll be here waiting up.
So I'll vow the moment that she leaves town,
Yeah, I'll be hopping trains to get away and try to save face,
But I know it's never far enough.

N.C.
(Still I'll never know)
Where you like to go when you're all alone,
And why you can't be reached,
Does anybody know?
You're breaking up again,
Are you listening to anything I've said?

N.C.              E
Tell me where you are and I'll find you.
                A/D
Tell me what it takes to see this through.
                A
Tell me what it takes to get to you,
         A/D      A
And I'll be there waiting.

E     A/D       A         E    A
Waiting, for you to come home,
       A/D            E   A
For word you're not gone
    A/D                 A             A/D
I'm praying that you'll answer when I ask you,
            E
That you'll answer when I ask you.

                  E            A/D
Tell me where you are and I'll find you.
                E
Tell me what it takes to see this through.
                A
Tell me what it takes to get to you,

        A/D
And I'll be there,
                E
I'll be there, (waiting)
                A/D
I'll be there, (waiting)
                A
Tell me what it takes to get to you,
         E        A/D
And I'll be there waiting.
  N.C.
(Waiting, waiting)

Notes: The intro part is also a fill in the second verse of the non acoustic version.
       In case you didn't see, the chords are in the lyrics.
Tap to rate this tab
# A B C D E F G H I J K L M N O P Q R S T U V W X Y Z