Song name
# A B C D E F G H I J K L M N O P Q R S T U V W X Y Z

Hit The Lights - Until We Get Caught tab

Tough part to tab out.

Hit The Lights - Until We Get Caught

e|-------------------------------------------------|
B|-------------------------------------------------|
G|-------------------------------------------------|
D|----8p7---8p7---8p7-8/9-10-----------------------|
A|-99-----9-----9----------------------------------|
E|-------------------------------------------------|
   ..     .     .
e|-------------------------------------------------|
B|-------------------------------------------------|
G|-------------------------------------------------|
D|----8p7---9p7---8p7-8/9--------------------------|
A|-88-----8-----8---------10-----------------------|
E|-------------------------------------------------|
   ..     .     .
e|------------------------------------------------------------------|
B|------------------------------------------------------------------|
G|----------------------------------7-7-------7-7-5/7-7777----------|
D|----8p7---8p7---8p7-8/9-10---5-5--7-7--5-5--7-7-5/7-7777----------|
A|-99-----9-----9--------------3-3--5-5--3-3--5-5-3/5-5555----------|
E|------------------------------------------------------------------|
   ..     .     .              . .       . .

Best I could do, any corrections or comments just let me know. fishnpants@yahoo.com


p - pull off
/ - slide up
. - palm mute
Tap to rate this tab
# A B C D E F G H I J K L M N O P Q R S T U V W X Y Z