Song name
# A B C D E F G H I J K L M N O P Q R S T U V W X Y Z

Hit The Lights - Bodybag tab

Highlighted       Show chord diagrams
Body Bag
The Furios
Tread Lightly

Got bored so I thought I'd figure out the chords and the solo. Enjoy.

Opening Chords: G F C C B A G x3 then G F C


C                        G               F
Billy thinks he's tough (but he's no real rough)
C                        G               F
Some people gotta learn (that you can get burned)
C                     G             F
Billy joined a gang (He feels like a man)
C                  G
Shooting his gun bang bang

F F# G

Chorus:
G        F              C         G   C  G
All your friends gon be real real sad when ya
G     F         C        G  C G
Goin' home in a body bag yeah yeah
G        F              C         G   C  G
All your friends gon be real real sad when ya
G     F         C   
Goin' home in a body bag 

C                        G           F
Jamie lives on Hastings (She's doin' Heroin)
C                     G         F
Left home at fifteen (She never had a friend)
C                             G            F
Her parents can't communicate (Now she's a one three eight)
C                           G
I hope this stories not too late

F F# G

Chorus
G        F              C         G   C  G
All your friends gon be real real sad when ya
G     F         C        G  C G
Goin' home in a body bag yeah yeah
G        F              C         G   C  G
All your friends gon be real real sad when ya
G     F         C   
Goin' home in a body bag 

Before solo: G F C C B A G x3 then G F C

Guitar Solo:
E|-------------------------------------------------------------|
B|-------------------------------------------------------------|
G|-------------------------------------------------------12-12-|
D|5-7-10-7-7-7-10-12-12-12-10-12-12-12-12-15-12-15-12-15-------|
A|-------------------------------------------------------------|
E|-------------------------------------------------------------|

E|--------------------------------------------------------10-10|
B|------------11-11-11-8-11-11-11-13-13-13-13-13-13-13-13------|
G|12-12-12-12--------------------------------------------------|
D|-------------------------------------------------------------|
A|-------------------------------------------------------------|
E|-------------------------------------------------------------|

E|12-12-12-12-10-8-10-8B---------------------------------------|
B|-------------------------------------------------------------|
G|-------------------------------------------------------------|
D|-------------------------------------------------------------|
A|-------------------------------------------------------------|
E|-------------------------------------------------------------|

C                        G                     F
You used to have it all (Now you're out on the streets)
C                  G                  F
Living day to day (Begging for food to eat)
C                         G              F
You can live a life time, Or you can die tonight
C                             G            
Will you survive a hard time, Roll out the dimes

F F# G

Chorus:
G        F              C         G   C  G            
All your friends gon be real real sad when ya
G     F         C        G  C G
Goin' home in a body bag yeah yeah
G        F              C         G   C  G
All your friends gon be real real sad when ya
G     F         C        G  C G
Goin' home in a body bag yeah yeah

G         F         C        G  C G
You goin' home in a body bag yeah yeah
G         F         C        G  C G        
You goin' home in a body bag yeah yeah
G         F         C        G  C G
You goin' home in a body bag yeah yeah

G         F
You goin' home
C         G
You goin' home

Ending Chords: G F C C B A G x3 then G F C


Tap to rate this tab
# A B C D E F G H I J K L M N O P Q R S T U V W X Y Z