Song name
# A B C D E F G H I J K L M N O P Q R S T U V W X Y Z

Hit The Lights - Hidden Acoustic tab

Here is the hidden acoustic for hit the lights. the other tab  isn't very good so i 
it out. if you want to post it on other sites give credit to Matt Smith.

verse-	  You don't know...
e ---0--0--0----|
B ---0--0--0----|
G ---2--2--1----|x4
D ---4--2--2----|
A ---0--0--2----|
D ---4--0--2----|

pre-chorus-	So when the blindfold...
e ---0--0--0--0----|
B ---0--3--0--0----|
G ---2--2--1--1----|x2
D ---4--0--2--2----|
A ---0--0--2--2----|
D ---4--x--2--2----|

Chorus-    But tonight I'll...
e ---0--0--0--0----|
B ---3--0--0--0----|
G ---2--1--2--1----|x4
D ---0--2--4--2----|
A ---0--2--0--2----|
D ---0--2--4--2----|

Break
e ---00000-----------------------------------------|
B ---33333-----------------------------------------|
G ---22222---------9-9/4-4/6-6-22222222-11111111---|x2
D ---00000-x-x-x-x-x-x/x-x/x-x-44444444-22222222---|
A ---00000-x-x-x-x-7-7/2-2/4-4-00000000-22222222---|
D ---00000-x-x-x-x-------------44444444-22222222---|

Verse-    Girl you're busy...
e ---0--0--0----|
B ---0--0--0----|
G ---2--2--1----|x4
D ---4--2--2----|
A ---0--0--2----|
D ---4--0--2----|

pre-chorus-	So when the blindfold...
e ---0--0--0--0----|
B ---0--3--0--0----|
G ---2--2--1--1----|x2
D ---4--0--2--2----|
A ---0--0--2--2----|
D ---4--x--2--2----|

Chorus-    But tonight I'll...
e ---0--0--0--0----|
B ---3--0--0--0----|
G ---2--1--2--1----|x4
D ---0--2--4--2----|
A ---0--2--0--2----|
D ---0--2--4--2----|


Bridge- you'll see...
e ---------------------------------------------------------|
B ------0-------------0-------------0-------------0--------|
G ----2---2---------2---2---------2---2---------2---2------|x6
D --0-------0-----4-------4-----2-------2-----2-------2----|
A ---------------------------------------------------------|
D ---------------------------------------------------------|

e --0---0---0---0--------|
B --0---0---0---0--------|
G --2---2---2---2--------|x4
D --0---4---2---2--------|
A --0---4---0---0--------|
D --0---4---2---2--------|

Chorus
Tap to rate this tab
# A B C D E F G H I J K L M N O P Q R S T U V W X Y Z