Song name
# A B C D E F G H I J K L M N O P Q R S T U V W X Y Z

Hit The Lights - Until We Get Caught tab

I only have the intro down for this song.
I will edit this song when I find out the whole song :P
Enjoy.

Standard Tuning.
 | -------------------------|
 | ---------------------7---|
 | -----4-----3---4-3/4-----|
 | -6-6---6-6---6-----------|
 | -6-6---------------------|
 | -4-4---------------------|

 | -------------------------|
 | ---------------------7---|
 | -----4-----3---4-3/4-----|
 | -2-2---2-2---2-----------|
 | -2-2---------------------|
 | -0-0---------------------|


 | -------------------------|
 | ---------------------7---|
 | -----4-----3---4-3/4-----|
 | -4-4---4-4---4-----------|
 | -4-4---------------------|
 | -2-2---------------------|

 |----------------------------|
 |----------------------------|
 |----------------------------|
 |-4-4--6-6---4-4--6-6---6666-|
 |-4-4--6-6---4-4--6-6---6666-|
 |-2-2--4-4---2-2--4-4---4444-|
Tap to rate this tab
 
# A B C D E F G H I J K L M N O P Q R S T U V W X Y Z