Song name
# A B C D E F G H I J K L M N O P Q R S T U V W X Y Z

Hives - Hey Little World tab

Help us improve GuitareTab! Take a short survey!
Artist: The Hives
Song: Hey Little World
Album: The Black and White Album

Tuning: Standard
Tabbed by cronan
---

INTRO/VERSE
(Mixing these two riffs)

|---------------------------------------|
|---------------------------------------|
|---------------------------------------|
|----------5-7--------------------------|
|------3-5------------------------------|
|-5~------------------------------------|

Once on a cold dark night...
|---------------------------------------|
|---------------------------------------|
|------5-7-7-9--------------------------|
|-7~---5-7-5-7--------------------------|
|-7~---3-5-x-x--------------------------|
|-5~------------------------------------|


CHORUS

Hey little world...
|---------------------------------------|
|---------------------------------------|
|-----------------5-5-5-5-5-5-5-5-------|
|-7-7-7-7-5-5-5-5-5-5-5-5-5-5-5-5-------|
|-7-7-7-7-5-5-5-5-3-3-3-3-3-3-3-3-------|
|-5-5-5-5-3-3-3-3-----------------------|


What you gonna do...
|---------------------------------------|
|---------------------------------------|
|------5-7-7-9--------------------------|
|-7~---5-7-5-7--------------------------|
|-7~---3-5-x-x--------------------------|
|-5~------------------------------------|


BRIDGE

Take it to your mother...
|---------------------------------------|
|---------------------------------------|
|------5-7-7-9--------------------------|
|-7~---5-7-5-7--------------------------|
|-7~---3-5-x-x--------------------------|
|-5~------------------------------------|

Now he is tall as a 'scraper'...
|---------------------------------------|
|---------------------------------------|
|---------------------------------------|
|-7----5-6-7----------------------------|
|-7----5-6-7----------------------------|
|-5----3-4-5----------------------------|

All around the planet...
|---------------------------------------|
|---------------------------------------|
|---------------------------------------|
|-5-6-7-----5-6-7-----------------------|
|-5-6-7-----5-6-7-----------------------|
|-3-4-5-----3-4-5-----------------------|


CHORUS/OUTRO
(Only this single riff on the last chorus)

Hey little world...
|---------------------------------------|
|---------------------------------------|
|-----------------5-5-5-5-5-5-5-5-------|
|-7-7-7-7-5-5-5-5-5-5-5-5-5-5-5-5-------|
|-7-7-7-7-5-5-5-5-3-3-3-3-3-3-3-3-------|
|-5-5-5-5-3-3-3-3-----------------------|

(End on)
|----
|----
|----
|-7~~
|-7~~
|-5~~
Related for Hey Little World tab