Guitaretab - guitar tabs
Song name
# A B C D E F G H I J K L M N O P Q R S T U V W X Y Z

Hives - The Hives Meet The Norm tab

-------------------------------------------------------------------------------
	      The Hives Meet The Norm  The Hives
-------------------------------------------------------------------------------
Tabbed by: Ben Pattyson	

I noticed no one has tabbed this so here is how i play it. Cheers.

Guitar 1

Intro

e|-----------------------------------|
B|-----------------------------------|
G|-----------------------------------|
D|-99999999999999999999999999999999--|
A|-99999999999999999999999999999999--|
E|-77777777777777777777777777777777--|

(0:12)

e|-----7-6------------6-7------------|
B|---8--------------8----------------|
G|-9--------------9------------------| x2
D|-----------------------------------|
A|-----------------------------------|
E|-----------------------------------|

(0:28)

e|-----------------------------------|
B|-----------------------------------|
G|-----------------------------------| x4
D|-7-5---7-7------7-5----------------|
A|-----7--------------7-0------------|
E|-----------------------------------|

e|-----------------------------------|
B|-----------------------------------|
G|-----------------------------------|
D|-----------------------------------|
A|-----------------3-3-3-3-5-5-5-5---|
E|-5-5-5-5-3-3-3-3-------------------|

(0:40)

e|----7-----7-----11------11-----|
B|------8-----8------10------10--|
G|-9------9-----9-------9--------|
D|-------------------------------|
A|-------------------------------|
E|-------------------------------|

e|-----------------------------------|
B|-----------------------------------|
G|-----------------------------------|
D|-99999999999999999999999999999999--|
A|-99999999999999999999999999999999--|
E|-77777777777777777777777777777777--|

e|-----7-6------------6-7------------|
B|---8--------------8----------------|
G|-9--------------9------------------| x2
D|-----------------------------------|
A|-----------------------------------|
E|-----------------------------------|

e|-----------------------------------|
B|-----------------------------------|
G|-----------------------------------| x4
D|-7-5---7-7------7-5----------------|
A|-----7--------------7-0------------|
E|-----------------------------------|

e|-----------------------------------|
B|-----------------------------------|
G|-----------------------------------|
D|-----------------------------------|
A|-----------------3-3-3-3-5-5-5-5---|
E|-5-5-5-5-3-3-3-3-------------------|

(1:24)

e|----7-----7-----11------11-----12-|
B|------8-----8------10------10--12-|
G|-9------9-----9-------9--------12-|
D|----------------------------------|
A|----------------------------------|
E|----------------------------------|

e|------------------------------------------------------------------|
B|------------------------------------------------------------------|
G|------------------------------------------------------------------|
D|-9999999999999999999999999999999912121212121212121212121212121212-|
A|-9999999999999999999999999999999912121212121212121212121212121212-|
E|-7777777777777777777777777777777710101010101010101010101010101010-|

e|-----------------------------------|
B|-----------------------------------|
G|-----------------------------------|
D|-----------------------------------|
A|-----------------3-3-3-3-5-5-5-5---|
E|-5-5-5-5-3-3-3-3-------------------|

(1:51)
[ Tab from: http://www.guitaretab.com/h/hives/113789.html ]
e|----7-----7-----11------11-----------12-|
B|------8-----8------10------10-----12----|
G|-9------9-----9-------9--------12-------|
D|----------------------------------------|
A|----------------------------------------|
E|----------------------------------------|


Guitar 2

Intro

e|-----------------------------------|
B|-----------------------------------|
G|-----------------------------------|
D|-99999999999999999999999999999999--|
A|-99999999999999999999999999999999--|
E|-77777777777777777777777777777777--|

(0:12)

e|-------------------------------|
B|-------------------------------|
G|-------------------------------| x4
D|-2--0-2------------------------|
A|-2--------2-0---0--------2-----|
E|---------------3---3-2-3---0---|

(0:28)

e|-------------------------------------------------------------------|
B|-------------------------------------------------------------------|
G|---------------------------------5-5-5-5-5-5-5-5-7-7-7-7-7-7-7-7---|
D|-7-7-7-7-7-7-7-7-5-5-5-5-5-5-5-5-5-5-5-5-5-5-5-5-7-7-7-7-7-7-7-7---|
A|-7-7-7-7-7-7-7-7-5-5-5-5-5-5-5-5-3-3-3-3-3-3-3-3-5-5-5-5-5-5-5-5---|
E|-5-5-5-5-5-5-5-5-3-3-3-3-3-3-3-3-----------------------------------|

e|-----------------------------------|
B|-----------------------------------|
G|-----------------------------------|
D|-----------------------------------|
A|-----------------3-3-3-3-5-5-5-5---|
E|-5-5-5-5-3-3-3-3-------------------|

(0:42)

e|-----------------------------------|
B|-----------------------------------|
G|-----------------------------------|
D|-99999999999999999999999999999999--|
A|-99999999999999999999999999999999--|
E|-77777777777777777777777777777777--|

(0:54)

e|-------------------------------|
B|-------------------------------|
G|-------------------------------| x4
D|-2--0-2------------------------|
A|-2--------2-0---0--------2-----|
E|---------------3---3-2-3---0---|

(1:12)

e|-------------------------------------------------------------------|
B|-------------------------------------------------------------------|
G|---------------------------------5-5-5-5-5-5-5-5-7-7-7-7-7-7-7-7---|
D|-7-7-7-7-7-7-7-7-5-5-5-5-5-5-5-5-5-5-5-5-5-5-5-5-7-7-7-7-7-7-7-7---|
A|-7-7-7-7-7-7-7-7-5-5-5-5-5-5-5-5-3-3-3-3-3-3-3-3-5-5-5-5-5-5-5-5---|
E|-5-5-5-5-5-5-5-5-3-3-3-3-3-3-3-3-----------------------------------|

e|-----------------------------------|
B|-----------------------------------|
G|-----------------------------------|
D|-----------------------------------|
A|-----------------3-3-3-3-5-5-5-5---|
E|-5-5-5-5-3-3-3-3-------------------|

(1:29)

e|------------------------------------------------------------------|
B|------------------------------------------------------------------|
G|------------------------------------------------------------------|
D|-9999999999999999999999999999999912121212121212121212121212121212-|
A|-9999999999999999999999999999999912121212121212121212121212121212-|
E|-7777777777777777777777777777777710101010101010101010101010101010-|

e|-----------------------------------|
B|-----------------------------------|
G|-----------------------------------|
D|-----------------------------------|
A|-----------------3-3-3-3-5-5-5-5---|
E|-5-5-5-5-3-3-3-3-------------------|

(1:54)

End on Em.

e|-----------------|
B|------------12---|
G|---------12------|
D|------14---------|
A|---14------------|
E|-12--------------|


===============================================================================

Related for The Hives Meet The Norm tab