Song name
# A B C D E F G H I J K L M N O P Q R S T U V W X Y Z

Hives - Sun Child tab

This is a real simple song by The Vines, but a very good song. Listen to the song
for the exact timing. - Flipp

e|-----------------------------------------------------
b|---------5-5-5-5-5---0-0-0-0-0---3-3-3-3---0-0-0-0-0-
g|---------4-4-4-4-4---4-4-4-4-4---4-4-4-4---4-4-4-4-4-
d|---------5-5-5-5-5---5-----------5-5-5-5---5---------
a|-----------------------------------------------------
e|-----------------------------------------------------

Chorus:

D - 8 beats
C - 4 beats
G - 4 beats

the verse does this one time in the song towards the end
e|------------------------------------------------------
b|---------5-5-5-5-5---0-0-0-0-0---0-0-0-0-0---0-0-0-0-0
g|---------4-4-4-4-4---4-4-4-4-4---3-3-3-3-3---4-4-4-4-4
d|---------5-5-5-5-5---5-----------5-5-5-5-5---5--------
a|------------------------------------------------------
e|------------------------------------------------------

Enjoy!!! If you have any questions or if anything is wrong feel free
to email me at DeeFlipp@hotmail.com
  -Flipp
Tap to rate this tab
 
# A B C D E F G H I J K L M N O P Q R S T U V W X Y Z