Song name
# A B C D E F G H I J K L M N O P Q R S T U V W X Y Z

Hives - Here We Go Again tab

-----------------------------------------------------------------------------
			     Here We Go Again - The Hives
-----------------------------------------------------------------------------

Tabbed by:Paulix
Email:paulbaur@gmx.at

Tuning:Standard

Intro:
e|--------------------------------------------------------------------------|
B|--------------------------------------------------------------------------|
G|-----------------7-4-7---4---4-----7-4-7---4---4-4------------------------|
D|--4------------4-7-4-7-7-4-2-4-2-4-7-4-7-7-4-2-4-4-2----------------------|
A|--4--let ring--4-5-2-5-7-2-2-2-2-4-5-2-5-7-2-2-2-2-2----------------------|
E|--2------------2-------5---0---0-2-------5---0-----0----------------------|
                 That's the Verse, repeat it 
Chorus:

e|--------------------------------------------------------------------------|
B|--------------------------------------------------------------------------|
G|--------------------------------------------------------------------------|
D|-4------7-----9-----------------------------------------------------------|
A|-4------7-----9-----------------------------------------------------------|
E|-2------5-----7-----------------------------------------------------------|
 (14x)   (8x)  (8x)
 
The Bridge:

e|--------------------------------------------------------------------------|
B|--------------------------------------------------------------------------|
G|------7-4-x-7---x-4---x-4-----x-7-4-x-7---x-4---4-4-----------------------|
D|--4-x-7-4-x-7-7-x-4-2-x-4-2-4-x-7-4-x-7-7-x-4-2-4-4-2---------------------|
A|--4-x-5-2-x-5-7-x-2-2-x-2-2-4-x-5-2-x-5-7-x-2-2-2-2-2---------------------|
E|--2-x---------5-----0-----0-2-----------5-----0-----0---------------------|





| /  slide up
| \  slide down
| h  hammer-on
| p  pull-off
| ~  vibrato
| +  harmonic
| x  Mute note
=============================================================================
Tap to rate this tab
# A B C D E F G H I J K L M N O P Q R S T U V W X Y Z