Song name
# A B C D E F G H I J K L M N O P Q R S T U V W X Y Z

Hives - Try It Again tab

Hiya.
This is easy song, and very fun to play with 2 guitarist, it's kinda like an 
thing, quite cool (:

-----------------------------------------------------------------------------
			     Try It Again - The Hives
-----------------------------------------------------------------------------
Hiya.
This i easy song, and very fun to play with 2 guitars, it's kinda like an 
thing, quite cool (:

Listen to the song to get the correct timing and to hear when to play, and when not to 
quite easy.

Tuning: standard

Intro 0:00-0:12

Guitar 1
e|-----------|
B|-----------|
G|-----------|
D|------4----|
A|9---9-2-2--|
E|7---7---0--|

Guitar 2
e|-------------|
B|-------------|
G|-------------|
D|--4---4------|
A|--2---2-2----|
E|--------0----|

At 0:13 another guitar (i think overdub)kicks in with this little riff.
It's cool to play this with guitar 2, guitar 1 can play the other riff.
e|---------------|
B|---------------|
G|4-4-2-2--4-4---|
D|-------------2-|
A|---------------|
E|---------------|

1st Verse 0:24

Guitar 1               Alternation around 0:35 and 0:48
e|-----------|         e|----|
B|-----------|         B|----|
G|-----------|         G|----|
D|------4----|         D|----|
A|9---9-2-2--|         A|7-2-|
E|7---7---0--|         E|5-0-|

Guitar 2
e|-------------|      e|----|
B|-------------|      B|----|
G|-------------|      G|----|
D|--4---4------|      D|----|
A|--2---2-2----|      A|7-2-|
E|--------0----|      E|5-0-|

1st Chorus 0:49

Guitar 1+2
e|-----|
B|-----|
G|-----|
D|7-9--|
A|5-7--|
E|-----|

Now comes the same part as the intro, end the chorus on: E|0-|

2nd Verse: with the single-note riff 1:14

2nd Chorus 1:51

After the second chorus, this comes. 2:12
Guitar 1 + 2 (you can choose to play only the single root notes of the chords)
e|-----------------------------|
B|-----------------------------|
G|-----------------------------|
D|-----------------4-6-7-9-11--|
A|2-4-5-7-9--------2-4-5-7-9---|
E|0-2-3-5-7--------------------|

Interlude (same as the intro), and a verse comes after it, the the chorus. Listen to the 
to hear when to play what. The chorus is repeated a lot
 of times, just listen to it and you'll get it correctly, it's not that hard.

Have fun with this song!
Please rate and comment (:

************************************

| /   slide up
| \   slide down
| h   hammer-on
| p   pull-off
| ~   vibrato
| +   harmonic
| x   Mute note
| b   Bend
| pb  Pre-bend
| br  Bend release
| pbr Pre-bend release
| brb Bend release bend

************************************
Tap to rate this tab
 
# A B C D E F G H I J K L M N O P Q R S T U V W X Y Z