Song name
# A B C D E F G H I J K L M N O P Q R S T U V W X Y Z

Hives - Thousand Answers tab

The Hives - Thousand Answers
Tabbed by: astoit1323

This is my first tab, but I am 100% sure this is how the song is played.
Comments/questions can be emailed to me at snpr1323@gmail.com

Intro:
(this part, the guitar is mostly trebled, turn he bass knob down  completely and 
turn up the treble knob on the amp to get the effect)
E|---------------------|
B|---------------------|
G|---------------------|
D|--44444--7--99999--7-|
A|--44444--7--99999--7-|
E|--22222--5--77777--5-|

(the bass knob should be turned up at this part, and the same sound is used for 
the rest of the song.)
E|---------------------------------|
B|--7--7777777777777777777777------|
G|--7--7777777777777777777777------|
D|--7--7777777777777777777777------|
A|--5--5555555555555555555555------|
E|---------------------------------|

Verse 1: (this is pretty much just the intro repeated)
E|------------------------------------------------|
B|-----------------------7--7777777777777777------|
G|-----------------------7--7777777777777777------| x2
D|--44444--7--99999--7---7--7777777777777777------|
A|--44444--7--99999--7---5--5555555555555555------|
E|--22222--5--77777--5----------------------------|

Verse 2:
E|-------------------------------------------------------|
B|-------------------------7~---------------7-8-7-8-7----|
G|-------------------------7~---------------7-7-7-7-7----|
D|---7~---------------7-7--7~----------------------------|
A|---7~---------------7-7--5~----------------------------|
E|---5~---------------5-5--------------------------------|

E|-------------------------------------------------------|
B|-------------------------7~---------------7-8-7-8-7----|
G|-------------------------7~---------------7-7-7-7-7----|
D|-7-7-7~-------------7-7--7~----------------------------|
A|-7-7-7~-------------7-7--5~----------------------------|
E|-5-5-5~-------------5-5--------------------------------|

Verse 1:
E|------------------------------------------------|
B|-----------------------7--7777777777777777------|
G|-----------------------7--7777777777777777------| x2
D|--44444--7--99999--7---7--7777777777777777------|
A|--44444--7--99999--7---5--5555555555555555------|
E|--22222--5--77777--5----------------------------|

Verse 2:
E|-------------------------------------------------------|
B|-------------------------7~---------------7-8-7-8-7----|
G|-------------------------7~---------------7-7-7-7-7----|
D|---7~---------------7-7--7~----------------------------|
A|---7~---------------7-7--5~----------------------------|
E|---5~---------------5-5--------------------------------|

E|-------------------------------------------------------|
B|-------------------------7~---------------7-8-7-8-7----|
G|-------------------------7~---------------7-7-7-7-7----|
D|-7-7-7~-------------7-7--7~----------------------------|
A|-7-7-7~-------------7-7--5~----------------------------|
E|-5-5-5~-------------5-5--------------------------------|

Prechorus:
E|-----------------------------------------------|
B|-----------------------------------------------|
G|-----------------------------------------------|
D|--7--9-9~--------------9-9-9-9~-------------7--|
A|--7--9-9~--------------9-9-9-9~-------------7--|
E|--5--7-7~--------------7-7-7-7~-------------5--|


Chorus:
E|------------------------------------------------------|\
B|--7--77-----------------------------7-7777777777777---| \
G|--7--77-----------------------------7-7777777777777---|  \
D|--7--77----4--4----9--99----7--7----7-7777777777777---|   \
A|--5--55----4--4----9--99----7--7----5-5555555555555---|    \
E|-----------2--2----7--77----5--5----------------------|     \
                                                               \
(second guitar also plays):                                    x2
E|------------------------------------------------------|     /
B|-----------------------------------------8787878787~--|    /
G|-----------------------------------------7777777777~--|   /
D|------------------------------------------------------|  /
A|------------------------------------------------------| /
E|------------------------------------------------------|/

(at the ending of the first chorus, he plays this before starting the next verse):
E|-----------------------------------------|
B|---7-------------------------------------|
G|---7-------------------------------------|
D|---7-------------------------------------|
A|---5--5-5-5-55-5~----5-5-5-55-5~---------|
E|-----------------------------------------|

Verse 1:
E|------------------------------------------------|
B|-----------------------7--7777777777777777------|
G|-----------------------7--7777777777777777------| x2
D|--44444--7--99999--7---7--7777777777777777------|
A|--44444--7--99999--7---5--5555555555555555------|
E|--22222--5--77777--5----------------------------|

Verse 2:
E|-------------------------------------------------------|
B|-------------------------7~---------------7-8-7-8-7----|
G|-------------------------7~---------------7-7-7-7-7----|
D|---7~---------------7-7--7~----------------------------|
A|---7~---------------7-7--5~----------------------------|
E|---5~---------------5-5--------------------------------|

E|-------------------------------------------------------|
B|-------------------------7~---------------7-8-7-8-7----|
G|-------------------------7~---------------7-7-7-7-7----|
D|-7-7-7~-------------7-7--7~----------------------------|
A|-7-7-7~-------------7-7--5~----------------------------|
E|-5-5-5~-------------5-5--------------------------------|

Prechorus:
E|-----------------------------------------------|
B|-----------------------------------------------|
G|-----------------------------------------------|
D|--7--9-9~--------------9-9-9-9~-------------7--|
A|--7--9-9~--------------9-9-9-9~-------------7--|
E|--5--7-7~--------------7-7-7-7~-------------5--|

Chorus: (played 4 times)
E|-------------------------------------------------------|
B|--7--77-----------------------------7-7777777777777----|
G|--7--77-----------------------------7-7777777777777----|
D|--7--77----4--4----9--99----7--7----7-7777777777777----|
A|--5--55----4--4----9--99----7--7----5-5555555555555----|
E|-----------2--2----7--77----5--5-----------------------|

(second guitar also plays):
E|------------------------------------------------------|
B|-----------------------------------------8787878787~--|
G|-----------------------------------------7777777777~--|
D|------------------------------------------------------|
A|------------------------------------------------------|
E|------------------------------------------------------|

Heavy Ending Part:
E|-----------------------------------|
B|--7--77----------------------------|
G|--7--77----------------------------|
D|--7--77----4--4----9--99----7--7---| x3
A|--5--55----4--4----9--99----7--7---|
E|-----------2--2----7--77----5--5---|

E|-----------------------------------------------|
B|---7-------------------------------------------|
G|---7-------------------------------------------|
D|---7-------------------------------------------|
A|---5--5-5-5-55-5~----5-5-5-555~----------------|
E|-----------------------------------------------|
Tap to rate this tab
 
# A B C D E F G H I J K L M N O P Q R S T U V W X Y Z