Song name
# A B C D E F G H I J K L M N O P Q R S T U V W X Y Z

Hives - The Hives Are Law You Are Crime tab

Tabed by: ecnerwal

e|----10-7------------------------|
b|-----------7-10-----------------|
g|------------------9-7-----------|
d|------------------------9-7/9---|
a|--------------------------------|
e|--------------------------------|

this riff is played throughout the verse
the base plays b all the way through

(low e, fret 7)

he has fills every 4 bars like

low e|7-7-7-7-7-7-70707-7-7-7-7-7-7

at the end of the verse the basest plays d for 2 bars

(low e, fret 10)

the guitarist plays


e|----10-7-----------10-7-10------|
b|-----------7-10-----------------|
g|--------------------------------|
d|--------------------------------|
a|--------------------------------|
e|--------------------------------|

the chorus is simple as well


e|----------------------------------|
b|----------------------------------|
g|----------------------------------|
d|11-11-11-11-11--6---7--7--7--7--7-|
a|11-11-11-11-11--6---7--7--7--7--7-|
e|9--9--9--9--9---4---5--5--5--5--5-|

in between when the riff ends and the start of the next time the guitarist plays:

e|---------|
b|---------|
g|--9--9---|
d|11-11-11-|
a|---------|
e|---------|

at the start of the next verse the guitarist plays

e|---
b|---
g|---
d|-9-
a|-9-
e|-7-




thats it just play the different parts at the right time and  you are good


finished
Tap to rate this tab
# A B C D E F G H I J K L M N O P Q R S T U V W X Y Z