Song name
# A B C D E F G H I J K L M N O P Q R S T U V W X Y Z

Hives - Mad Man tab

This is one of my favorite songs by The Hives, and i love that little riff in the middle!

e|------------------------------------------------|
b|------------------------------------------------|
g|---------------------4-4-4-4-4-4-4-4------------|  several
d|---5-5-5-5--4-4-4-4--4-4-4-4-4-4-4-4------------|   times
a|---5-5-5-5--4-4-4-4--2-2-2-2-2-2-2-2------------|
E|---3-3-3-3--2-2-2-2-----------------------------|

e|------------------------------------------------|
b|---7b-7b---7b-7b--------------------------------|  Repeats while the other
g|------------------------------------------------|  other guitar does the
d|------------------------------------------------|  main tune
a|------------------------------------------------|
E|------------------------------------------------|

e|------------------------------------------------|
b|------------------------------------------------|
g|--------------------------4-- let --------------|  repeat
d|-----0---------0----------4-- ring -------------|  4 times
a|-------4-0-------4-0---2--2---------------------|
E|---2-------2-2-------2--------------------------|
Tap to rate this tab
# A B C D E F G H I J K L M N O P Q R S T U V W X Y Z