Song name
# A B C D E F G H I J K L M N O P Q R S T U V W X Y Z

Hives - Introduce The Metric System In Time tab

-------------------------------------------------------------------------------
        THE HIVES - INTRODUCE THE METRIC SYSTEM IN TIME - The Hives
-------------------------------------------------------------------------------

Tabbed by: underrated
Email: mattconnellan@yahoo.com

Tuning:Standard

Intro
e|---------------------------------|
B|---------------------------------|
G|---------------------------------|
D|---------------------------------|
A|---------------------------------|
E|-3-3-3-3-3-3-3-3-3-3-3-3-3-3-3-3-|

Main riff
e|------------------------------|
B|------------------------------|
G|-----------------8--8---------|
D|-10--10--8-10-8--8--8--8-10-8-|
A|-10--10--8-10-8--6--6--8-10-8-|
E|-8---8---6-8--6--------6-8--6-|

Fill 1
e|----------------------|
B|----------------------|
G|----------------------|
D|----------------------|
A|----------------------|
E|-8-8-6-8-8--8-8-6-8-8-|

Verse
e|-------------------------------------------------------------------|
B|-------------------------------------------------------------------|
G|-------------------------------------------------------------------|
D|-------------------------------------------------------------------|
A|-------------------------------------------------------------------|
E|-8-8-8-8-8-8-8-8-8-8-8-8-8-8-8-8-8-8-8-8-8-8-8-8-8-8-8-8-8-8-8-8-8-|
   . . . . . . . . . . . . . . . . . . . . . . . . . . . . . . . . .
Been trying for all my life but I can't add up your subtraction.
Work, eat, play then go to sleep that won't get me no satisfaction.

Fill 2
e|-------------------------------------------------|
B|-------------------------------------------------|
G|-10-10-10-10-10-10-10-10-10-10-10-10-10-10-10-10-|
D|-10-10-10-10-10-10-10-10-10-10-10-10-10-10-10-10-|
A|-8--8--8--8--8--8--8--8--8--8--8--8--8--8--8--8--|
E|-------------------------------------------------|
Gotta find a way out, yeah a way out of this mess

Verse
e|-------------------------------------------------------------------|
B|-------------------------------------------------------------------|
G|-------------------------------------------------------------------|
D|-------------------------------------------------------------------|
A|-------------------------------------------------------------------|
E|-8-8-8-8-8-8-8-8-8-8-8-8-8-8-8-8-8-8-8-8-8-8-8-8-8-8-8-8-8-8-8-8-8-|
   . . . . . . . . . . . . . . . . . . . . . . . . . . . . . . . . .
So sick of trying to make my time last and ending up with less

Fill 1
e|--------------------------------------------|
B|--------------------------------------------|
G|--------------------------------------------|
D|--------------------------------------------|
A|--------------------------------------------|
E|-8-8-6-8-8--8-8-6-8-8--8-8-6-8-8--8-8-6-8-8-|
I know your way of doing things and it has lost it's attraction.
Why settle for twenty-four when I can have a hundred fractions


Fill 2
e|-------------------------------------------------|
B|-------------------------------------------------|
G|-10-10-10-10-10-10-10-10-10-10-10-10-10-10-10-10-|
D|-10-10-10-10-10-10-10-10-10-10-10-10-10-10-10-10-|
A|-8--8--8--8--8--8--8--8--8--8--8--8--8--8--8--8--|
E|-------------------------------------------------|
Who knew I'd be the one pulling off the perfect crime

Fill 1
e|--------------------------------------------|
B|--------------------------------------------|
G|--------------------------------------------|
D|--------------------------------------------|
A|--------------------------------------------|
E|-8-8-6-8-8--8-8-6-8-8--8-8-6-8-8--8-8-6-8-8-|
So here's my new line I'll change your mind and the metric system to time

Repeat the whole progression with the second verse, play the main riff a few extra times,
and you're done!

| /  slide up
| \  slide down
| h  hammer-on
| p  pull-off
| ~  vibrato
| +  harmonic
| x  Mute note
===============================================================================
Tap to rate this tab
# A B C D E F G H I J K L M N O P Q R S T U V W X Y Z